Françoise Hardy

Cétait Charmant

Françoise Hardy

bass

by  FERNSANTANA

save to print version add songbook text version e-mail correct tuner
chordsukulelecavacokeyboardtabbassdrumsharmonicaflute Guitar Pro
close

there isn't a video lesson for this song

chords

Cétait Charmant

	  		
Intro 
G|--------------|--------------|--------------|-------------| 
D|--------------|--------------|--------------|-------------| 
A|-3-----------3|-5-----------5|--------------|-3-----------| 
E|--------------|--------------|-3-----------3|-------------| 

verse 1 
G|----------------|----------------|----------------|-----------------| 
D|----------------|----------------|-5-------5------|-----------------| 
A|-3-------3-----3|-5-------5-----5|-------5--------|-3-------3----3-2| 
E|-------3--------|-------5--------|---------------3|-------3---------| 

G|----------------|----------------|----------------|----------------| 
D|----------------|----------------|-5-------5------|----------------| 
A|-------7-------7|-5-------5-----5|-------5--------|-3-------3-----3| 
E|-5-------5------|-------5--------|---------------3|-------3--------| 

G|----------------|---------------| 
D|-3-----3--------|---------------| 
A|---------3-----3|-------5-------| 
E|----------------|-3-------3-----| 

verse 2 
G|----------------|----------------|----------------|-----------------| 
D|----------------|----------------|-5-------5------|-----------------| 
A|-3-------3-----3|-5-------5-----5|-------5--------|-3-------3----3-2| 
E|-------3--------|-------5--------|---------------3|-------3---------| 

G|----------------|----------------|----------------|----------------| 
D|----------------|----------------|-5-------5------|----------------| 
A|-------7-------7|-5-------5-----5|-------5--------|-3-------3-----3| 
E|-5-------5------|-------5--------|---------------3|-------3--------| 

G|----------------|----------------|----------------| 
D|-3-------3-----3|----------------|-3-------3-----3| 
A|-------3--------|-3-------3-----3|-------3--------| 
E|----------------|-------3--------|----------------| 

Outro 
G|----------------|---------| 
D|----------------|---------| 
A|-6-----6-4---4--|-(Guitar)| 
E|----------------|---------| 
		  

See also:

bass Françoise Hardy - Ma Jeunesse Fout Le Camp bass Françoise Hardy - La Fin De Lété bass Françoise Hardy - Cétait Charmant bass Françoise Hardy - Viens Là
e-chords

Other versions:

bass Françoise Hardy - Cétait Charmant
auto scroll beats size up size down change color hide chords drawings
tab show chords e-chords YouTube Clip e-chords hide all tabs e-chords go to top tab

share