Foo Fighters

home > Foo Fighters

Ever Long Bass Tab

Foo Fighters

Difficulty: BeginnerBeginner

tuner correct add songbook print version text version save to e-mail
chordsukulelecavacokeyboardtabbassdrumsharmonicsflute Guitar Pro
chords

Ever Long

	  

Tuning Drop-D(DADG)

~ = Hold Note
(?) = # of times to play not in front

Intro(play when 2nd guitar starts)
G------------------------------
D------------------------------
A------------------------------
D-0~----9~------5~------9~-----

G------------------------------
D------------------------------
A------------------------------
D-0(x12)-9(x12)-5(x6)-9(x12)---

verse

G------------------------------
D------------------------------
A------------------------------x6
D-0(x12)-9(x12)-5(x6)-9(x12)---

pre-chorus

G-----------------------------
D-------------4--5--7---------
A----4--5--7------------------x2
D-----------------------7(x6)-

G-----------------------
D-------------4--5--7---
A----4--5--7------------
D-----------------------

Chorus

G-----------------------------
D-----------------------------
A-----------------------------x3
D--9(x6)--5(x6)--0(x6)---7(x6)-

G--------------
D--------------
A--------------
D---5(x12)-----

Versex3

Pre- Chorus(same)

Chorus(same)

Bridge(play when 2nd guitar starts)
G------------------------------
D------------------------------
A------------------------------
D-0~----9~------5~------9~-----

G-----------------------
D-------------4--5--7---
A----4--5--7------------x3
D-----------------------

Chorus(same except hold last note (G) (D-5)

	  

there isn't a video lesson for this song

request
Search Paypal
auto scroll beats size up size down change color hide chords drawings
tab show chords e-chords YouTube Clip e-chords hide all tabs e-chords go to top tab