Foo Fighters

home > Foo Fighters

"my Hero" Bass Tab

Foo Fighters

Difficulty: ExpertExpert

tuner correct add songbook print version text version save to e-mail
chordsukulelecavacokeyboardtabbassdrumsharmonicsflute Guitar Pro
chords

"my Hero"

	  

 - My Hero

Tabbed by pogothemonkey 
(any corrections email me [email protected])

G:|-----------------------|
D:|-----------------------|
A:|-------2/44444---------|	x8
E:|-00000-----------------|

G:|--------------------|
D:|--------------------|
A:|----4-2-------------|
E:|--22---4-5----------|

G:|-----------------------|
D:|-----------------------|
A:|-------2/44444---------|	x8
E:|-00000-----------------|

G:|-----------------------------|
D:|-----------------------------|
A:|-0000000000------------------|	x2
E:|-----------0000000000--------|

G:|--------------------|
D:|--------------------|
A:|----4-2-------------|
E:|--22---4-5----------|

G:|-----------------------|
D:|-----------------------|
A:|-------2/44444---------|	x8
E:|-00000-----------------|

G:|-----------------------------|
D:|-----------------------------|
A:|-0000000000------------------|	x2
E:|-----------0000000000--------|

G:|--------------------|
D:|--------------------|
A:|----4-2-------------|
E:|--22---4-5----------|

G:|--------------------------|
D:|--------------------------|
A:|--------4---------4-------|
E:|-0~--0~----0~--0~---0~~---|

G:|-----------------------|
D:|-----------------------|
A:|-------2/44444---------|	x4
E:|-00000-----------------|

G:|-----------------------------|
D:|-----------------------------|
A:|-0000000000------------------|	x4
E:|-----------0000000000--------|

G:|--------------------|
D:|--------------------|
A:|----4-2-------------|
E:|--22---4-5----------|

	  

there isn't a video lesson for this song

request
Search
auto scroll beats size up size down change color hide chords drawings
tab show chords e-chords YouTube Clip e-chords hide all tabs e-chords go to top tab