Focal Point

Tales From The Gpo Files

Focal Point

bass

by  ALEFFEDERICO

save to print version add songbook text version e-mail correct tuner
chordsukulelecavacokeyboardtabbassdrumsharmonicaflute Guitar Pro
close

there isn't a video lesson for this song

chords

Tales From The Gpo Files

	  		Tabbed by: 6METAL6BASSIST6 
E-mail [email protected] 

Tuning: EADG 

G|----------------------------------------------------------------| 
D|------------------------------------------------7-------5h7-----| 
A|5-----------5---5---------------5-----------5-------------------| 
E|----------------------------------------------------------------| 

G|----------------------------------------------------------------| 
D|--------------------------------------------------------7-------| 
A|5-----------5---5---------------5-----------5---5---------------| 
E|----------------------------------------------------------------| 

0:09 

G|----------------------------------------------------------------| 
D|----------------------------------------------------------------| 
A|5-----------5---5---------------3-----------3-----------3-------| 
E|------------------------------------5---3-----------3-----------| 

G|----------------------------------------------------------------| 
D|----------------------------------------------------------------| 
A|5-------------------------------3-----------3-------------------| 
E|------------------------------------5---3-----------------------| 

G|--------9-/-11------9-----------14------------------------------| 
D|----9-------------------------------------------14--------\-----| 
A|7---------------------------------------------------------------| 
E|----------------------------------------------------------------| 

G|--------9-/-11------9-----------14------------------------------| 
D|----9-------------------------------14--------------------------| 
A|7-------------------------------------------12----------10--\---| 
E|----------------------------------------------------------------| 

0:27 

G|----------------------------------------------------------------| 
D|----------------------------------------------------------------| x2 
A|5-------------------------------3-----------3-----------3-------| 
E|------------------------------------5---3-----------3-----------| 

G|--------9-/-11------9-----------14------------------------------| 
D|----9---------------------------------------14--------------\---| 
A|7---------------------------------------------------------------| 
E|----------------------------------------------------------------| 

G|--------9-/-11------9-----------14------------------------------| 
D|----9-------------------------------14--------------------------| 
A|7-------------------------------------------12----\-10--10--\---| 
E|----------------------------------------------------------------| 

G|----------------------------------------------------------------| 
D|--------------------------------------------7-----------5h7-----| 
A|5-----------5---5-----------5---5-------------------------------| 
E|----------------------------------------------------------------| 

G|----------------------------------------------------------------| 
D|------------------------------------------------7-------7-------| 
A|5-----------5---5---------------5-----------5-------------------| 
E|----------------------------------------------------------------| 

0:54 

G|----------------------------------------------------------------| 
D|----------------------------------------------------------------| x2 
A|5-----------5---5---------------3-----------3-----------3-------| 
E|------------------------------------5---3-----------3-----------| 

G|--------9-/-11------9-----------14------------------------------| 
D|----9---------------------------------------14------------\-----| 
A|7---------------------------------------------------------------| 
E|----------------------------------------------------------------| 

G|--------9-/-11----------9-------14------------------------------| 
D|----9-------------------------------14--------------------------| 
A|7-------------------------------------------12----------10--\---| 
E|----------------------------------------------------------------| 

1:13 

G|----------------------------------------------------------------| 
D|--------------------------------------------7-----------5h7-----| 
A|5-----------5---5-----------5---5-------------------------------| 
E|----------------------------------------------------------------| 

G|----------------------------------------------------------------| 
D|--------------------------------------------7-----------5h7-----| 
A|5-----------5---5---------------5-------------------------------| 
E|----------------------------------------------------------------| 

G|--------9-/-11----------9-------14------------------------------| 
D|----9---------------------------------------14------------------| 
A|7-------------------------------------------------------12\-----| 
E|----------------------------------------------------------------| 

G|--------9-/-11----------9-------14------------------------------| 
D|----9-------------------------------14--------------------------| 
A|7-------------------------------------------12----------10--\---| 
E|----------------------------------------------------------------| 

1:31 

G|----------------------------------------------------------------| 
D|----------------------------------------------------------------| x2 
A|5-----------5---5---------------3-----------3-----------3-------| 
E|------------------------------------5---3-----------3-----------| 

G|--------9---11------9-----------14------------------------------| 
D|----9-------------------------------------14------------\-------| 
A|7---------------------------------------------------------------| 
E|----------------------------------------------------------------| 

G|--------9-/-11------9-----------14------------------------------| 
D|----9-------------------------------14--------------------------| 
A|7-------------------------------------------12----------10--\---| 
E|----------------------------------------------------------------| 

1:49 

G|----------------------------------------------------------------| 
D|--------------------------------------------7-----------5h7-----| 
A|5-----------5---5---------------5-------------------------------| 
E|----------------------------------------------------------------| 

G|----------------------------------------------------------------| 
D|--------------------------------------------------------7-------| 
A|5-----------5---5---------------5-----------5-------------------| 
E|----------------------------------------------------------------| 

G|----------------------------------------------------------------| 
D|--------------------------------------------7-----------5h7-----| x2 
A|5-----------5---5-----------5---5-------------------------------| 
E|----------------------------------------------------------------| 

G|--------------------------------------------------------------------| 
D|--------------------------------------------7-----------5h7---------| 
A|5-----------5---5-----------5---5-------------------------------5---| 
E|--------------------------------------------------------------------| 
		  

See also:

bass Deep Purple - Burn (ver. 2) bass Deep Purple - Smoke On The Water (ver. 3) bass Deep Purple - Strange kind of woman bass Deep Purple - Into The Fire bass Deep Purple - Burn Ver.(2) bass Deep Purple - Smoke On The Water
e-chords

Other versions:

bass Focal Point - Tales From The Gpo Files
auto scroll beats size up size down change color hide chords drawings
tab show chords e-chords YouTube Clip e-chords hide all tabs e-chords go to top tab

share