Fito & Fitipaldis

Whisky Barato

Fito & Fitipaldis

bass

by  JESSGOMES

save to print version add songbook text version e-mail correct tuner
chordsukulelecavacokeyboardtabbassdrumsharmonicaflute Guitar Pro
close

there isn't a video lesson for this song

chords

Whisky Barato

	  		Autor: Fito Cabrales 


WHISKY BARATO (Fito y Fitipaldis) 

INTRO 
E||------------------------------------------------------------------- 
A||-------------------------------------------------------------------X2 
D||-------------------3---5---3-------2---3---5----------------------- 
G||---------------3---------------3----------------------------------- 


E||------------------------------------------------------------------- 
A||-------------------3---5---3-------2---3---5----------------------- 
D||---------------3---------------3----------------------------------- 
G||------------------------------------------------------------------- 


E||------------------------------------------------------------------- 
A||------------------------------------------------------------------- 
D||-------------------3---5---3-------2---3---5----------------------- 
G||---------------3---------------3----------------------------------- 


E||------------------------------------------------------------------- 
A||-------------------5---7---5-------4---5---7----------------------- 
D||---------------5---------------5----------------------------------- 
G||------------------------------------------------------------------- 


E||------------------------------------------------------------------- 
A||------------------------------------------------------------------- 
D||-------------------3---5---3-------2---3---5----------------------- 
G||---------------3---------------3----------------------------------- 


SE REPITE LA INTRO CUANDO ENTRA EL ACORDEON. 

ESTROFA  Cuando ya no sirven las palabras 
         Quiero ser tan duro como el hierro 

E||-------------------------------------------------------------------- 
A||--------------------------------------------------------------------X2 
D||--------2---5---------------------2𦠭-------52-35-----5𦠪----- 
G||----3------------3------------3-----------5------------5---------3 

ESTRIBILLO        Ya no queda nada entre tu y yo.. 

E||-------------------------------------------------------------------- 
A||-------------------25-----5-------------------5--7-----7-----------X2 
D||--------02-----3-------3--------25----2--5--------5--------25--- 
G||-------------3----------------3------3---------------------3-------3 


SE REPITE ESTROFA Y ESTRIBILLO 

EN EL SOLO DE GUITARRA SE REPITE INTRO 4 VECES HASTA FIN. 


Es muy dificil pues se mueve demasiado los dedos, pero en realidad se 
repitebastante. Un saludo y arriba Fito.
		  

See also:

bass Animales Muertos - Kaos Y Destrucci髇 bass Fito & Fitipaldis - Por La Boca Vive El Pez bass Fito & Fitipaldis - Whisky Barato
e-chords

Other versions:

bass Fito & Fitipaldis - Whisky Barato
auto scroll beats size up size down change color hide chords drawings
tab show chords e-chords YouTube Clip e-chords hide all tabs e-chords go to top tab

share