Finch

Worms Of The Uinverse

Finch

bass

save to print version add songbook text version e-mail correct tuner
chordsukulelecavacokeyboardtabbassdrumsharmonicaflute Guitar Pro
close

there isn't a video lesson for this song

chords

Worms Of The Uinverse

	  		

Tuning: Drop D + Half Step Down (Db Ab Db Gb) 

Intro: Part 1 
G|-10~-----------------------------------------------------------------------| 
D|-10~-----------------------------------------------------------------------| 
A|-8-~-----------------------------------------------------------------------| 
E|---------------------------------------------------------------------------| 

Intro: Part 2 
G|------------------------------------------------------------------------------| 
D|------------------------------------------------------------------------------| 
A|------------------------------------------------------------------------------| 
E|-2-(12x)-3-(4x)-2-(4x)-5-(20x)-2-(12x)-3-(4x)-2-(4x)-555555553333222255555555-| 


Verse V(Tens's Not One's And Zero's) 
G|---------------------------------------------------------------------------| 
D|-8-------5------8-------5--------------------------------------------------| 
A|-8-(16x)-5-(8x)-8-(16x)-5-(12x)-101010101010101010-------------------------| 
E|-8-------5------8-------5-------101010101010101010-------------------------| 


Chorus 
G|---------------------------------------------------------------------------| 
D|---------------------------------------------------------------------------| 
A|---------------------------------------------------------------------------| 
E|-0-12-10-0-10-0-10-12-0-12-10-0-10-0-10-12---------------------------------| 

G|---------------------------------------------------------------------------| 
D|---------------------------------------------------------------------------| 
A|----------------------------9-10-12-10-9-----------------------------------| 
E|-0-12-10-0-10-0-10-12-12-12--------------12--------------------------------| 

G|---------------------------------------------------------------------------| 
D|---------------------------------------------------------------------------| 
A|---------------------------------------------------------------------------| 
E|-0-12-10-0-10-0-10-12-0-12-10-0-10-0-10-12---------------------------------| 

G|---------------------------------------------------------------------------| 
D|---------------------------------------------------------------------------| 
A|---------------------------------------------------------------------------| 
E|-0-12-10-0-10-0-12-0-12-10-0-3-3-3-3---------------------------------------| 


1st Post-Chorus 
G|---------------------------------------------------------------------------| 
D|---------------------------------------------------------------------------| 
A|---------33-----22---------------------------------------------------------| 
E|-3~---320--0-320--0-3030---------------------------------------------------| 


2nd Post-Chorus 
G|---------------------------------------------------------------------------| 
D|---------------------------------------------------------------------------| 
A|---------------------------------------------------------------------------| 
E|-3~---3~---0~--------------------------------------------------------------| 


Outro (Bass Solo) 
G|---------------------------------------------------------------------------| 
D|---------------------------------------------------------------------------| 
A|----33-----22-------(keep Repeating-Until Song Ends)-----------------------| 
E|-320--0-320--0-3030--------------------------------------------------------|

		  

See also:

bass Coldplay - A Whisper bass Eric Clapton - Layla bass Eric Clapton - Cocain (ver. 2) bass The Beatles - A Day in the Life bass Coldplay - The Scientist (ver. 2) bass Coldplay - Clocks (ver. 3)
e-chords

Other versions:

bass Finch - Worms Of The Uinverse
auto scroll beats size up size down change color hide chords drawings
tab show chords e-chords YouTube Clip e-chords hide all tabs e-chords go to top tab

share