Finch

What It Is To Burn The Right Way

Finch

bass

save to print version add songbook text version e-mail correct tuner
chordsukulelecavacokeyboardtabbassdrumsharmonicaflute Guitar Pro
close

there isn't a video lesson for this song

chords

What It Is To Burn The Right Way

	  		

 - What It Is To Burn	

Riff 1
G---------------------------------------------------------------------|
D---------------------------------------------------------------------|
A-4444444444444444----------------------------------------------------|
E------------------6666666666666666-4444444444444444-2222222222222222-|

Riff 2
G-----------------------------|
D-----------------------------|
A-4~~~~-3~~~~-----------------|
E------------2~~-222222-2~~~~-|

Riff 3
G----------------------------------------|
D----------------------------------------|
A-4~~~~-3~~~~----------------------------|
E------------2~~-222222-4444444444444444-|

Riff 4
G-----------------------------------|
D-----------------------------------|
A-4~~~~-3~~~~-----------------------|
E-------------222-222-222-222-2~~~~-|

Riff 5
G------------------------|
D------------------------|
A-4~~~~------------------|
E------1~~~~-2~~~~-4~~~~-|

Riff 6
G---------------------------------------------------------------------|
D---------------------------------------------------------------------|
A-4444444444444444----------------------------------------------------|
E------------------1111111111111111-2222222222222222-4444444444444444-|

Order:
wait 35 seconds for intro then...
Riff 1 x 2
Riff 2 x 1
Riff 3 x 1
Riff 1 x 2
Riff 4 x 3
Riff 1 x 2
Riff 5 x 2
Riff 6 x 2
Riff 1 x 4
Outro on Guitar

		  

See also:

bass Coldplay - A Whisper bass Eric Clapton - Layla bass Eric Clapton - Cocain (ver. 2) bass The Beatles - A Day in the Life bass Coldplay - The Scientist (ver. 2) bass Coldplay - Clocks (ver. 3)
e-chords

Other versions:

bass Finch - What It Is To Burn The Right Way
auto scroll beats size up size down change color hide chords drawings
tab show chords e-chords YouTube Clip e-chords hide all tabs e-chords go to top tab

share