Finch

Letters Too You

Finch

bass

save to print version add songbook text version e-mail correct tuner
chordsukulelecavacokeyboardtabbassdrumsharmonicaflute Guitar Pro
close

there isn't a video lesson for this song

chords

Letters Too You

	  		

Letters To You                                  


Tabbed by David Ferguson
                                                                          
Gb||------|------||---------------------------|--------------------------|
Db||------|------||*--------------------------|--------------------------|
Ab||------|------||*--------------------------|--------------------------|
Db||------|------||---0--0--0--0--0--0--0--0--|--0--0--0--0--0--0--0--0--|


                                                      
--------------------------|--------------------------|
--------------------------|--------------------------|
--------------------------|--------------------------|
--4--4--4--4--4--4--4--4--|--4--4--4--4--4--4--4--4--|


                                                      
--------------------------|--------------------------|
--------------------------|--------------------------|
--------------------------|--------------------------|
--5--5--5--5--5--5--5--5--|--5--5--5--5--5--5--5--5--|


                                                                                
--------------------------|---------------------------||----|----|----||-------|
--------------------------|--------------------------*||----|----|----||*------|
--------------------------|--------------------------*||----|----|----||*------|
--7--7--7--7--7--7--7--7--|--7--7--7--7--7--7--7--7---||----|----|----||-------|


                                                                    
------|------|--------------------------|--------------------------|
------|------|--------------------------|--------------------------|
------|------|--------------------------|--------------------------|
------|------|--0--0--0--0--0--0--0--0--|--0--0--0--0--0--0--0--0--|


                                                        
--------------------------|---------------------------||
--------------------------|--------------------------*||
--------------------------|--------------------------*||
--0--0--0--0--0--0--0--0--|--0--0--0--0--0--0--0--0---||


                                                      
------------------------||---------------------------|
------------------------||*--------------------------|
------------------------||*--2--2--2--2--2--2--2--2--|
--0--0--0--0--0--0------||---------------------------|


                                                      
--------------------------|--------------------------|
--------------------------|--5--5--5--5--5--5--5--5--|
--2--2--2--2--2--2--2--2--|--------------------------|
--------------------------|--------------------------|


                                                      
--------------------------|--------------------------|
--5--5--5--5--5--5--5--5--|--------------------------|
--------------------------|--5--5--5--5--5--5--5--5--|
--------------------------|--------------------------|


                                                      
--------------------------|--------------------------|
--------------------------|--------------------------|
--5--5--5--5--5--5--5--5--|--------------------------|
--------------------------|--4--4--4--4--4--4--4--4--|


                                                                        
---------------------------||------|------||---------------------------|
--------------------------*||------|------||*--------------------------|
--------------------------*||------|------||*--------------------------|
--4--4--4--4--4--4--4--4---||------|------||---0--0--0--0--0--0--0--0--|


                                                      
--------------------------|--------------------------|
--------------------------|--------------------------|
--------------------------|--------------------------|
--0--0--0--0--0--0--0--0--|--4--4--4--4--4--4--4--4--|


                                                      
--------------------------|--------------------------|
--------------------------|--------------------------|
--------------------------|--------------------------|
--4--4--4--4--4--4--4--4--|--5--5--5--5--5--5--5--5--|


                                                      
--------------------------|--------------------------|
--------------------------|--------------------------|
--------------------------|--------------------------|
--5--5--5--5--5--5--5--5--|--7--7--7--7--7--7--7--7--|


                                                                              
---------------------------||-------|------|------|--------------------------|
--------------------------*||*------|------|------|--------------------------|
--------------------------*||*------|------|------|--------------------------|
--7--7--7--7--7--7--7--7---||-------|------|------|--0--0--0--0--0--0--0--0--|


                                                      
--------------------------|--------------------------|
--------------------------|--------------------------|
--------------------------|--------------------------|
--0--0--0--0--0--0--0--0--|--0--0--0--0--0--0--0--0--|


                                                       
---------------------------||-------------------------|
--------------------------*||-------------------------|
--------------------------*||-------------------------|
--0--0--0--0--0--0--0--0---||--0--0--0--0--0--0--0----|


                                                        
|---------------------------|--------------------------|
|*--------------------------|--------------------------|
|*--2--2--2--2--2--2--2--2--|--2--2--2--2--2--2--2--2--|
|---------------------------|--------------------------|


                                                      
--------------------------|--------------------------|
--5--5--5--5--5--5--5--5--|--5--5--5--5--5--5--5--5--|
--------------------------|--------------------------|
--------------------------|--------------------------|


                                                      
--------------------------|--------------------------|
--------------------------|--------------------------|
--5--5--5--5--5--5--5--5--|--5--5--5--5--5--5--5--5--|
--------------------------|--------------------------|


                                                      3x                        
--------------------------|---------------------------||-------|-------||------|
--------------------------|--------------------------*||*------|------*||------|
--------------------------|--------------------------*||*------|------*||------|
--4--4--4--4--4--4--4--4--|--4--4--4--4--4--4--4--4---||-------|-------||------|


                                                        
|---------------------------|--------------------------|
|*--------------------------|--------------------------|
|*--------------------------|--------------------------|
|---0--0--0--0--0--0--0--0--|--0--0--0--0--0--0--0--0--|


                                                      3x                        
--------------------------|---------------------------||----|----|------|------|
--------------------------|--------------------------*||----|----|------|------|
--------------------------|--------------------------*||----|----|------|------|
--0--0--0--0--0--0--0--0--|--0--0--0--0--0--0--0--0---||----|----|------|------|


                                                         
------|------|------|------||---------------------------|
------|------|------|------||*--------------------------|
------|------|------|------||*--2--2--2--2--2--2--2--2--|
------|------|------|------||---------------------------|


                                                      
--------------------------|--------------------------|
--------------------------|--5--5--5--5--5--5--5--5--|
--2--2--2--2--2--2--2--2--|--------------------------|
--------------------------|--------------------------|


                                                      
--------------------------|--------------------------|
--5--5--5--5--5--5--5--5--|--------------------------|
--------------------------|--5--5--5--5--5--5--5--5--|
--------------------------|--------------------------|


                                                      
--------------------------|--------------------------|
--------------------------|--------------------------|
--5--5--5--5--5--5--5--5--|--------------------------|
--------------------------|--4--4--4--4--4--4--4--4--|


                           4x              
---------------------------||------|------|
--------------------------*||------|------|
--------------------------*||------|------|
--4--4--4--4--4--4--4--4---||------|------|


                                                   
--------------------------------------------------|
--------------------------------------------------|
--------------------------------------------------|
--0--0--0--0--0--0--0--0--0--0--0--0--0--0--0--0--|


                                            
------------------------------------------||
------------------------------------------||
------------------------------------------||
--0--0--0--0--0--0--0--0------------------||

		  

See also:

bass Coldplay - A Whisper bass Eric Clapton - Layla bass Eric Clapton - Cocain (ver. 2) bass The Beatles - A Day in the Life bass Coldplay - The Scientist (ver. 2) bass Coldplay - Clocks (ver. 3)
e-chords

Other versions:

bass Finch - Letters Too You bass Finch - Letters Too You (ver. 2)
auto scroll beats size up size down change color hide chords drawings
tab show chords e-chords YouTube Clip e-chords hide all tabs e-chords go to top tab

share