Finch

Finch--what It Is To Burn

Finch

bass

save to print version add songbook text version e-mail correct tuner
chordsukulelecavacokeyboardtabbassdrumsharmonicaflute Guitar Pro
close

there isn't a video lesson for this song

chords

Finch--what It Is To Burn

	  		



WHAT IT IS TO BURN(PERFECT)
fleapepper27


INTRO x2

G:----------------------------------------------------------------------
D:----------------------------------------------------------------------
A:------------------2222222222222222-0000000000000000-------------------
D:-0000000000000000------------------------------------5555555555555555-

VERSE

G:----------------------------------
D:----------------------------------
A:-----4~----------------4~---------
D:-0~-----5~----5~---0~-----5~--7~--

CHORUS x2

G:----------------------------------------------------------------------
D:----------------------------------------------------------------------
A:------------------2222222222222222-0000000000000000-------------------
D:-0000000000000000------------------------------------5555555555555555-

VERSE

G:-----------------------------------------------------------------
D:-----------------------------------------------------------------
A:-----4~--------------4~-------------------------4444444444444444-
D:-0~-----5~---5~---0~----5~-5~--0000000000000000------------------

-----------------------------------
-----------------------------------
-----------------------------------
-5555555555555555-7777777777777777-

CHORUS x2

G:----------------------------------------------------------------------
D:----------------------------------------------------------------------
A:------------------2222222222222222-0000000000000000-------------------
D:-0000000000000000------------------------------------5555555555555555-

(PAUSE)
BREAKDOWN

G:---------------------------------------------------5-5-6----------
D:---------7------------------------------------/6-6----------------
A:-5-5-5-5---5----------3-4-----------------------------------------
D:--------------4-4-4-4-------5-5-5-5--7-7-7-7----------------------

G:-----------------------------------------------------------
D:---------7-------------------------------------------------
A:-5-5-5-5---5----------3-4-------------0-0-0-0-0-0-0-0------
D:--------------4-4-4-4-------5-5-5-5------------------------

CHORUS x4

G:----------------------------------------------------------------------
D:----------------------------------------------------------------------
A:------------------2222222222222222-0000000000000000-------------------
D:-0000000000000000------------------------------------5555555555555555-

thats about it.  just follow this and youll get the song in no time.
finch is a great band a i truly resepct the music.  ROCK ON!!!!!!!!!

		  

See also:

bass Coldplay - A Whisper bass Eric Clapton - Layla bass Eric Clapton - Cocain (ver. 2) bass The Beatles - A Day in the Life bass Coldplay - The Scientist (ver. 2) bass Coldplay - Clocks (ver. 3)
e-chords

Other versions:

bass Finch - Finch--what It Is To Burn
auto scroll beats size up size down change color hide chords drawings
tab show chords e-chords YouTube Clip e-chords hide all tabs e-chords go to top tab

share