Finch

3 Simple Wordz

Finch

bass

save to print version add songbook text version e-mail correct tuner
chordsukulelecavacokeyboardtabbassdrumsharmonicaflute Guitar Pro
close

there isn't a video lesson for this song

chords

3 Simple Wordz

	  		


3 Simple Words
What it is to burn
Track 11

....-Palm mute

Drop D Tuning

Intro/Intro Pt 2. except don't palm mute it

|-------------------------------------------------
|-------------------------------------------------
|-------------------------------------------------
|-66666666666-44444444444-44444444444-22222222222-
|-44444444444-22222222222-44444444444-22222222222-
|-------------------------44444444444-22222222222-
   ..........  ..........  ..........  ..........

Verse

|---------------------------------------------------------------
|---------------------------------------------------------------
|---------------------------------------------------------------
|-666-----6666------444-----4444------444-----4444-----22222222-
|-444-4h6-4444-4h6--222-2h4-2222-2h4--444-----4444-----22222222-
|-------------------------------------444-4h6-4444-4h6-22222222-
   ..     ....       ..     ....       ..     ....    

Chorus/Play Chorus to the Outro.

|-----------------------------------------
|-----------------------------------------
|-----------555555555---------------------
|-666666666-555555555-111111111-333333333-
|-666666666-333333333-111111111-333333333-
|-666666666-----------111111111-333333333-

Breakdown/Bridge thing 
I couldn't figure out what the lead guitar does with that effect thing,so this is just the rhythm part

|-----------------------------------------------
|-----------------------------------------------
|-----------------------------------------------
|-22-----------22-------22-------22-----------22
|-22-----------22-------22-------22-----------22
|-00-----------00-------00-------00-----------00
               ..       ..       ..           ..

3nd bridge part

|----0-----------0----------0----------0-------
|----2-----------2----------2----------2-------
|-66-3-66-66-66--3-66-66-66-3-66-66-66-3-66-66-
|-66-2-66-66-66--2-66-66-66-2-66-66-66-2-66-66-
|-44-3-44-44-44--3-44-44-44-3-44-44-44-3-44-44-
|----------------------------------------------



Heavy part

|-----------------------
|-----------------------
|-4444------------------
|-4444--5555-7777-22222-
|-2222--5555-7777-22222-
|-------5555-7777-22222-

		  

See also:

bass Coldplay - A Whisper bass Eric Clapton - Layla bass Eric Clapton - Cocain (ver. 2) bass The Beatles - A Day in the Life bass Coldplay - The Scientist (ver. 2) bass Coldplay - Clocks (ver. 3)
e-chords

Other versions:

bass Finch - 3 Simple Wordz
auto scroll beats size up size down change color hide chords drawings
tab show chords e-chords YouTube Clip e-chords hide all tabs e-chords go to top tab

share