Fidlar

Loko Blues

Fidlar

bass

by  ROBEPOIEL

save to print version add songbook text version e-mail correct tuner
chordsukulelecavacokeyboardtabbassdrumsharmonicaflute Guitar Pro
close

there isn't a video lesson for this song

chords

Loko Blues

	  		verse 1 
G|---------------------------|----------------------------| 
D|---------------------------|--------------------2-2-----| 
A|--2--2--0--0--------5--5---|--2--2--0--0------------0-0-| 
E|--------------2--2---------|--------------2--2----------| 

G|---------------------------|----------------------------| 
D|---------------------------|----------------------------| 
A|--2--2--0--0--5--5--5--5---|--2--2--0--0--------5-5-5-5-| 
E|---------------------------|--------------2--2----------| 

G|---------------------------|----------------------------| 
D|---------------------------|--------------------2-2-----| 
A|--2--2--0--0--------5--5---|--2--2--0--0------------0-0-| 
E|--------------2--2---------|--------------2--2----------| 

G|---------------------------|----------------------------| 
D|---------------------------|----------------------------| 
A|--2--2--0--0--------5--5---|--2--2--0--0--------5--0----| 
E|--------------2--2---------|--------------2--2----------| 


Chorus 1 
G|---------------------------|----------------------------| 
D|---------------------------|----------------------------| 
A|--2--2--0--0--------5--5---|--2--2--0--0----------------| 
E|--------------2--2---------|--------------0--0--2--2----| 

G|---------------------------|--------------------------------------| 
D|---------------------------|--------------------------------------| 
A|--2--2--0--0--------5--5---|--2--2--0--0--------------------------| 
E|--------------2--2---------|--------------0--0--0--0--0--0--0--0--| 

G|---------------------| 
D|---------------------| 
A|---------------------| 
E|--2--2--2--2--2------| 


Solo 
G|---------------------------|---------------------------| 
D|---------------------------|---------------------------| 
A|--2--2--0--0--------5--5---|--2--2--0--0--------5--5---| 
E|--------------2--2---------|--------------2--2---------| 

G|---------------------------|---------------------------| 
D|---------------------------|---------------------------| 
A|--2--2--0--0--------5--5---|--2--2--0--0--------5--0---| 
E|--------------2--2---------|--------------2--2---------| 


verse 2 
G|---------------------------|----------------------------| 
D|---------------------------|--------------------2-2-----| 
A|--2--2--0--0--------5--5---|--2--2--0--0------------0-0-| (x4) 
E|--------------2--2---------|--------------2--2----------| 


Chorus 2 
G|---------------------------|----------------------------| 
D|---------------------------|----------------------------| 
A|--2--2--0--0--------5--5---|--2--2--0--0----------------| 
E|--------------2--2---------|--------------0--0--2--2----| 

G|---------------------------|--------------------------------------| 
D|---------------------------|--------------------------------------| 
A|--2--2--0--0--------5--5---|--2--2--0--0--------------------------| 
E|--------------2--2---------|--------------0--0--0--0--0--0--0--0--| 

G|---------------------| 
D|---------------------| 
A|---------------------| 
E|--2--2--2--2--2------| 


Outro 01:59 
G|-------------------|-------------------|-------------------|-------------------| 
D|-------------------|-------------------|-------------------|-------------------| 
A|--2-2-2-2-2-2-2-2--|--2-2-2-2-2-2-2-2--|--2-2-2-2-2-2-2-2--|--2-2-2-2-2-2-5-5--| 
E|-------------------|-------------------|-------------------|-------------------| 

G|-------------------|-------------------| 
D|-------------------|-------------------| 
A|--2-2-2-2-2-2-2-2--|--2-2-2-2-2-2-2-2--| 
E|-------------------|-------------------| 
		  

See also:

e-chords

Other versions:

bass Fidlar - Loko Blues
auto scroll beats size up size down change color hide chords drawings
tab show chords e-chords YouTube Clip e-chords hide all tabs e-chords go to top tab

share