Feeder

Seven Days In The Sun

Feeder

bass

save to print version add songbook text version e-mail correct tuner
chordsukulelecavacokeyboardtabbassdrumsharmonicaflute Guitar Pro
close

there isn't a video lesson for this song

chords

Seven Days In The Sun

	  		




Tabbed by MattW

Intro
G:---------          ---------------
D:--------- Silence/ ---------------
A:-----5-5-  Drums   -------3-3-2-1-
E:-3-3-----         -5-5-5---------

Verse 
G:----------------------------------
D:----------------------------------
A:---------5-5-5-5----------3-3-2-1-
E:3-3-3-3/---------5-5-5-5/---------


Pre-Chorus (repeat for second pre-chorus)

G:-------------------------------------
D:-------------------------------------
A:-------------------------------------
E:-5555555555555555/888888888888888888-

Chorus
G:---------------------------------
D:---------------------------------
A:---------5-5-5-5---------3-3-3-3-
E:-3-3-3-3---------5-5-5-5---------

Interlude (play a then b then a and then back to the intro)
a)                        b)
G:---------------------  -----------------
D:---------------------  -----------------
A:---------------------  ---------3-3-3-3-
E:-55555555/8888888888-  /3-3-3-3---------


Outro (with the fast drumming)

G:---------------------------------
D:---------------------------------
A:---------5-5-5-5---------3-3-2-1-
E:3-3-3-3/--------5-5-5-5/---------

Another Chorus and another Intro and that's it!

		  

See also:

bass Feeder - Waiting For Changes bass Feeder - Turn bass Feeder - Anaesthetic bass Feeder - Bug bass Feeder - Piece By Piece (ver. 2) bass Feeder - Insomnia (ver. 3)
e-chords

Other versions:

bass Feeder - Seven Days In The Sun bass Feeder - Seven Days In The Sun (ver. 2) bass Feeder - Seven Days In The Sun (ver. 3)
auto scroll beats size up size down change color hide chords drawings
tab show chords e-chords YouTube Clip e-chords hide all tabs e-chords go to top tab

share