Feeder

Comfort In Sound

Feeder

bass

save to print version add songbook text version e-mail correct tuner
chordsukulelecavacokeyboardtabbassdrumsharmonicaflute Guitar Pro
close

there isn't a video lesson for this song

chords

Comfort In Sound

	  		


Artist - 
Song - 
Album - Comfort In Sound (2002) - Echo
Notes - Standard Tuning EADG
Tabbed By - James Hill [email protected]

Verse
G|--------|--------|--------|--------|
D|--------|--------|--------|--------|
A|--------|--------|--------|--------|
E|8-8-8-8-|3-3-3-3-|10101010|10101010| x 3

Verse Variation
G|--------|--------|--------|--------|
D|--------|--------|--------|--------|
A|--------|--------|--------|----9-10|
E|8-8-8-8-|3-3-3-3-|10101010|1010----|

Verse x 1

Pre Chorus
G|--------|--------|--------|--------|
D|--------|--------|--------|--------|
A|--------|--------|--------|--------|
E|5-5-5-5-|5-5-5-5-|8-8-8-8-|8-8-8-7-|

Verse x 1
Verse Variation x 1
Vesre x 1
Pre Chorus x 1

Chorus
G|--------|--------|--------|--------|
D|--------|--------|--------|--------|
A|--------|--------|--------|--------|
E|8-8-8-8-|12121212|3-3-3-3-|5-5-5-5-|

G|--------|--------|--------|--------|
D|--------|--------|--------|--------|
A|--------|--------|5-5-5-5-|--------|
E|8-8-8-8-|3-3-3-3-|--------|5-5-5-5-|

G|--------|--------|--------|--------|
D|--------|--------|--------|--------|
A|--------|--------|--------|--------|
E|8-8-8-8-|12121212|3-3-3-3-|5-5-5-5-|

G|--------|--------|--------|--------|
D|--------|--------|--------|--------|
A|--------|--------|--------|--------|
E|8-8-8-8-|8-8-8-8-|7-8-8-8-|8-8-8-7-|

Verse x 1

Verse Variation 2
G|--------|--------|--------|--------|
D|--------|--------|--------|--------|
A|--------|10101010|--------|12--109-|
E|8-8-8-8-|--------|10101010|--10----|

Verse x 1
Verse Variation x 1
Verse x 1
Pre Chorus x 1
Chorus x 1

Bridge
G|--------|--------|--------|--------|
D|--------|--------|--------|--------|
A|--------|--------|--------|--------|
E|12------|12--12--|10------|10--10--|

G|--------|--------|--------|--------|
D|--------|--------|--------|--------|
A|--------|--------|--------|--------|
E|5---5--4|5---5--4|5---5--4|5---5---|

G|--------|--------|--------|--------|
D|--------|--------|--------|--------|
A|--------|--------|--------|--------|
E|12------|12--12--|7---7---|7---7/10|

G|--------|--------|--------|--------|
D|--------|--------|--------|--------|
A|--------|--------|--------|--------|
E|5---5--4|5---5--4|5---5--4|5---5---|

Verse x 1
Verse Variation x 1
Verse x 1
Pre Chorus x 1
Chorus x 1
Verse x 1

Verse Variation 3
G|--------|--------|--------|--------|
D|--------|--------|--------|--------|
A|--------|10101010|--------|--------|
E|8-8-8-8-|--------|10------|(10)----|

		  

See also:

bass Feeder - Waiting For Changes bass Feeder - Turn bass Feeder - Anaesthetic bass Feeder - Bug bass Feeder - Piece By Piece (ver. 2) bass Feeder - Insomnia (ver. 3)
e-chords

Other versions:

bass Feeder - Comfort In Sound
auto scroll beats size up size down change color hide chords drawings
tab show chords e-chords YouTube Clip e-chords hide all tabs e-chords go to top tab

share