Feeder

Cant Standing Losing You

Feeder

bass

save to print version add songbook text version e-mail correct tuner
chordsukulelecavacokeyboardtabbassdrumsharmonicaflute Guitar Pro
close

there isn't a video lesson for this song

chords

Cant Standing Losing You

	  		




TABED BY POONTAG

intro

E-5-8-----5-8-----5-8----5-8---------
A-----7-5-----7-5-----7-5----7-5-4-3-
D------------------------------------
G------------------------------------

Pre chorus 

E--6-6-6--1-1--6-6-1-1-------3-3---------------
A----------------------3-3-3-----3-3--5-5-5----
D----------------------------------------------
G----------------------------------------------

chorus 

E-6-6-6-6-6-6-6-6-6-6-6-6-6--1--3-3-3-3-3-3-3-3-
A-----------------------------------------------
D-----------------------------------------------
G-----------------------------------------------

i dont know how meany times this is played play this but it is a lot

E-5-8-----5-8-----5-8----5-8---------
A-----7-5-----7-5-----7-5----7-5-4-3-
D------------------------------------
G------------------------------------

Pre chorus 

E--6-6-6--1-1--6-6-1-1-------3-3---------------
A----------------------3-3-3-----3-3--5-5-5----
D----------------------------------------------
G----------------------------------------------

chorus 

E-6-6-6-6-6-6-6-6-6-6-6-6-6--1--3-3-3-3-3-3-3-3-
A-----------------------------------------------
D-----------------------------------------------
G-----------------------------------------------

		  

See also:

bass Feeder - Waiting For Changes bass Feeder - Turn bass Feeder - Anaesthetic bass Feeder - Bug bass Feeder - Piece By Piece (ver. 2) bass Feeder - Insomnia (ver. 3)
e-chords

Other versions:

bass Feeder - Cant Standing Losing You
auto scroll beats size up size down change color hide chords drawings
tab show chords e-chords YouTube Clip e-chords hide all tabs e-chords go to top tab

share