Fatboy Slim

Praise You (ver. 2)

Fatboy Slim

bass

save to print version add songbook text version e-mail correct tuner
chordsukulelecavacokeyboardtabbassdrumsharmonicaflute Guitar Pro
close

there isn't a video lesson for this song

chords

Praise You (ver. 2)

	  		


 
 
Album: You’ve Come A Long Way, Baby
Normal Tuning
Tabber: [email protected]

Main Riff

G--------11---------------------------|
D-----11-----------11-----------------|
A-9-9-----------11--------3-3-4-4-6-6-|
E-----------9-9-------4-4-------------|

Lead-up

G----------------------------------|
D----------------------------------|
A----------------------------------|
E-4---4---4---4---4---4---4---4----|

Bridge

G-------8---------|
D-----8---------6-|
A-6-6---------6---|
E---------4-4-----|

Ending

G----------------------------------|fade out on
D----------------------------------|this part
A-2---2---2---2---2---2---2---2----|
E----------------------------------|

		  

See also:

bass Simon & Garfunkel - The sounds of silence bass Live - Dolphin´s Cry bass Guns N' Roses - Sweet Child O' Mine bass Guns N' Roses - Civil War bass 4 Non Blondes - What`s up (ver. 1) bass Guns N' Roses - Sweet Child O' Mine (ver. 3)
e-chords

Other versions:

bass Fatboy Slim - Praise You bass Fatboy Slim - Praise You (ver. 2)
auto scroll beats size up size down change color hide chords drawings
tab show chords e-chords YouTube Clip e-chords hide all tabs e-chords go to top tab

share