Fatboy Slim

Can't Stop The Rock

Fatboy Slim

bass Easy easy

by  MARO_RNR

save to print version add songbook text version e-mail correct tuner
chordsukulelecavacokeyboardtabbassdrumsharmonicaflute Guitar Pro
close

there isn't a video lesson for this song

chords

Can't Stop The Rock

	  		todo el tiempo 
G|------------------------------| 
D|------------------------------| 
A|-----------------0-1----1-1---| 
E|-1--1--1--1--1-1------------4-| 
 
union 
G|----------------| 
D|-3-3-1----------| 
A|-------3--1-1-3-| 
E|----------------| 
 
 
mezclen bien los 2 riffs y sale... 

		  

See also:

bass Guns N' Roses - You Could Be Mine bass Aerosmith - Walk This Way bass The Killers - Somebody Told Me bass Aerosmith - Crazy bass Guns N' Roses - Coma bass Counting Crows - Mr Jones
e-chords

Other versions:

bass Fatboy Slim - Can't Stop The Rock
auto scroll beats size up size down change color hide chords drawings
tab show chords e-chords YouTube Clip e-chords hide all tabs e-chords go to top tab

share