Falling Sickness

Lurker

Falling Sickness

bass

save to print version add songbook text version e-mail correct tuner
chordsukulelecavacokeyboardtabbassdrumsharmonicaflute Guitar Pro
close

there isn't a video lesson for this song

chords

Lurker

	  		INTRO: 
 
G:--------- 
D:---------   (LET EACH NOTE RING OUT) 
A:-7-----5- 
E:----9---- 
 
 
INTRO TO VERSE: 
 
G:------------------------------*--------------- 
D:------------------------------*--------------- 
A:-------5-5-5-7-7-7-7-3-2-0----*---------------   (PLAY PART BEFORE STARS  
E:-3-3-3----------------------3-*-3-3-3-3-3-3-3-    2x ) 
 
 
VERSE: 
 
G:-------------------------- 
D:-------------------------- 
A:--------5-5-5-7-7-7-3-3-3- 
E:-3-3-3-------------------- 
 
INTRO TO CHORUS: 
 
G:--------------------- 
D:---------------------    (PLAY 3x) 
A:------------5-5------ 
E:-3-3-3-3-3-------5-5- 
 
 
CHORUS: 
 
G:------------------------------- 
D:------------------------------- 
A:--------5-5-5-7-7-7-3-3-2-0---- 
E:-3-3-3-----------------------3- 

		  

See also:

bass The Killers - Somebody told me (ver. 2) bass Guns N' Roses - Estranged bass Guns N' Roses - Attitude bass The Offspring - Want You Bad bass Kiss - Beth bass Foo Fighters - Ever Long
e-chords

Other versions:

bass Falling Sickness - Lurker
auto scroll beats size up size down change color hide chords drawings
tab show chords e-chords YouTube Clip e-chords hide all tabs e-chords go to top tab

share