Falco

Nachtflug

Falco

bass

by  RENEJUNIOR

save to print version add songbook text version e-mail correct tuner
chordsukulelecavacokeyboardtabbassdrumsharmonicaflute Guitar Pro
close

there isn't a video lesson for this song

chords

Nachtflug

	  		
Verse 

G|--------------8-6------2420------------------------------------------------| 
D|----------6------8-6-------3----3------------------------------------------| 
A|-4-----4---4--------4-------333---1-4--------------------------------------| 
E|---456-------------------------------4-------------------------------------| 

G|--------------8-6------2420------------------------------------------------| 
D|----------6------8-6-------3----3------------------------------------------| 
A|-4-----4---4--------4-------333---1-4--------------------------------------| 
E|---456--------------------------------4------------------------------------| 

Chorus 

G|-----------------------------------------------8-66------------------------| 
D|-------------------------1-11-3/4-----6-----6h8-------2--------------------| 
A|-4-44--------4-44--1-11-----------------4----------------------------------| 
E|-------2-22----------------------------------------------------------------| 

Verse 

G|---------------8-6------2420-----------------------------------------------| 
D|-6---------6------8-6-------3----3-----------------------------------------| 
A|--4-----4---4--------4-------333---1-4-------------------------------------| 
E|----456-------------------------------4------------------------------------| 

G|--------------8-6------2420------------------------------------------------| 
D|----------6------8-6-------3----3------------------------------------------| 
A|-4-----4---4--------4-------333---1-4--------------------------------------| 
E|---456--------------------------------4------------------------------------| 

Chorus 

G|------------------------------------------------8-66-----------------------| 
D|-------------------------1-11--3/4-----6-----6h8-------2-------------------| 
A|-4-44--------4-44--1-11-----------------4----------------------------------| 
E|-------2-22----------------------------------------------------------------| 

G|-----------------------------------------------8-66------------------------| 
D|-------------------------1-11-3/4-----6-----6h8-------868686----6----6-----| 
A|-4-44--------4-44--1-11----------------4---------------------4----4---4----| 
E|-------2-22----------------------------------------------------------------| 


************************************ 

| h   Hammer-on 
| /   Slide up 

************************************ 
		  

auto scroll beats size up size down change color hide chords drawings
tab show chords e-chords YouTube Clip e-chords hide all tabs e-chords go to top tab