Faith no More

Malpractice

Faith no More

bass

save to print version add songbook text version e-mail correct tuner
chordsukulelecavacokeyboardtabbassdrumsharmonicaflute Guitar Pro
close

there isn't a video lesson for this song

chords

Malpractice

Year: 1992 - Album: Angel Dust

	  		




       w  3x H s s s s     q q q s s s s  4x  s e s s e s s e s s s s s  8x
---||--r--||-r---------||-----------------||-----------------------------||
4:-||*-e-*||-e---------||*---------------*||*---------------------------*||
4:-||*-s-*||-s---------||*---------------*||*-------------2-2-x---------*||
---||--t--||-t-4-4-4-4-||--3-0-0-4-4-4-4--||--3-3-3-4-4-4-------1-1-1-1--||
                                            1st Verse

        E s e e e  4x    q q e e e   q q e e e   q q e e e   q q e e e
----||-------------||--------------|-----------|-----------|-----------|
-5:-||*-----------*||-7:-----------|-----------|-----------|-----------|
-8:-||*-----------*||-8:-----------|-----------|-----2-3---|-----------|
----||--3-3-4-1-1--||----3-4-0-0-0-|-3-4-0-0-0-|-3-4-----2-|-3-4-1-1-1-|

  q q e e e   q q e e e   q q e e e   q q e e e  2x  q q Q  4x  h+Q   h+Q
|-----------|-----------|-----------|------------||------r--||------|-----|
|-----------|-----------|-----------|-----------*||*-----e-*||*-----|-1-1-|
|-----2-3---|-----2-3---|-----2-3---|-----------*||*-----s-*||*-----|-----|
|-3-4-----2-|-3-4-----2-|-3-4-----2-|-3-4-1-1-1--||--3-4-t--||--3-3-|-----|

  h+Q  +h+Q  2x        E s e e e  8x        q q q e  6x        E s e e e  4x
|-----|------||----||-------------||----||-----------||----||-------------||
|-----|-----*||-5:-||*-----------*||-7:-||*---2-----*||-5:-||*-----------*||
|-2-2-|-2-2-*||-8:-||*-----------*||-8:-||*-3---1-0-*||-8:-||*-----------*||
|-----|------||----||--3-3-4-1-1--||----||-----------||----||--3-3-4-1-1--||

        s e s s e s s e s s s s s  8x        q q Q  4x q q e e e
----||-----------------------------||----||------r--||-----------|
-4:-||*---------------------------*||-7:-||*-----e-*||-----------|
-4:-||*-------------2-2-x---------*||-8:-||*-----s-*||-----------|
----||--3-3-3-4-4-4-------1-1-1-1--||----||--3-4-t--||-3-4-0-0-0-|
      2nd Verse

  q q e e e   q q e e e   q q e e e   q q e e e   q q e e e   q q e e e
|-----------|-----------|-----------|-----------|-----------|-----------|
|-----------|-----------|-----------|-----------|-----------|-----------|
|-----------|-----2-3---|-----------|-----2-3---|-----2-3---|-----2-3---|
|-3-4-0-0-0-|-3-4-----2-|-3-4-1-1-1-|-3-4-----2-|-3-4-----2-|-3-4-----2-|

  q q e e e     h+Q   h+Q   h+Q  +h+Q  2x        w  6x      w        w  6x
|-----------||------|-----|-----|------||----||--r--||----|-r----||--r--||
|-----------||*-----|-1-1-|-----|-----*||-4:-||*-e-*||-2:-|-e-4:-||*-e-*||
|-----------||*-----|-----|-2-2-|-2-2-*||-4:-||*-s-*||-4:-|-s-4:-||*-s-*||
|-3-4-1-1-1-||--3-3-|-----|-----|------||----||--t--||----|-t----||--t--||
                                               Strings enter

     w      w     q q q s s s s  7x  s e s s e s s e s s s s s  8x
---|-r----|-r-||-----------------||-----------------------------||
2:-|-e-4:-|-e-||*---------------*||*---------------------------*||
4:-|-s-4:-|-s-||*---------------*||*-------------2-2-x---------*||
---|-t----|-t-||--3-0-0-4-4-4-4--||--3-3-3-4-4-4-------1-1-1-1--||
                                   3rd Verse

    q q q s s s s  16x w
||-----------------||--r-||
||*---------------*||--e-||
||*---------------*||--s-||
||--3-0-0-4-4-4-4--||--t-||



================================================================================
1. Credits

All songs by Faith No More except Midnight Cowboy:  by John Barry, 
Performed by Faith No More.  From the album Angel Dust and the maxi-
single Songs To Make Love To.  (C) 1969 EMI U Catalog Inc./Barwin 
Music, Inc. This Arrangement (C) 1992  EMI U Catalog Inc./Barwin 
Music, Inc. (ASCAP)

All transcriptions by Joe White except "A Small Victory" which appeared 
in Guitar For The Practicing Musician, Sept. 1992.  This transcription 
was re-tabbed, as the origional had too many nuances that needn't be
transcribed.

Joe White claims no copyright on these tabs, the copyright belongs to 
Faith No More's publishing company.  Feel free to use these files, edit 
them, etc.  Just give credit to me, like this:

transcribed by Joe White ([email protected])

================================================================================
2.  Tablature Explanation
  ===========================================================================
  ==                               All Songs                               ==
  ==             created with a demo version of BUCKET O' TAB              ==
  ==                tablature creation software for Windows                ==
  ==                    For more info email [email protected]                    ==
  ==                                                                       ==
  ==                                                                       ==
  ==                         TABLATURE EXPLANATION                         ==
  ===========================================================================

  ----------                ----------                ----t---
  ----5h8--- Hammeron       ----(8)--- Ghost          ----6--- Tap
  ----------                ---------- Note           --------
  ----5p8--- Pulloff        ----------                --------

  ----------                ----------                -----p--
  ----5/8--- Slide Up       -----x---- Dead           -----7-- Pop
  ----------                ---------- Note           --s-----
  ----5\8--- Slide Down     ----------                --5----- Slap 

  ----------                ||------|| Repeat         --------
  ----5~~~-- Vibrato        ||*----*||                ---5^--- Bend
  ----------                ||*----*||                -------- (up, one step)
  ----------                ||------||                --------
                                                         (1)
                             tr~~
  ----------                ---------- Trill to       --------
  -4:------- Time           ---------- note in        ---5^--- Bend
  -4:------- Signature      -0(1)----- parenthesis    -------- (up, 1/2 step)
  ----------                ----------                --------
                                                       (1/2)

Rhythm:
  w = whole note            W = dotted whole
  h = half note             H = dotted half
  q = quarter note          Q = dotted quarter
  e = eighth note           E = dotted eighth
  s = sixteenth note        S = dotted sixteenth
  t = 32nd note             T = dotted 32nd
  x = 64th note             X = dotted 64th
  ^ = triplet               + = tie to previous note

		  

See also:

bass Faith no More - Last cup of sorrow bass Fuel - Won Back Down bass Faith no More - Small victorie bass Fuel - Bad Day (ver. 3) bass Focus - Le Clochard bass Oasis - Don't Look Back in Anger
e-chords

Other versions:

bass Faith no More - Malpractice
auto scroll beats size up size down change color hide chords drawings
tab show chords e-chords YouTube Clip e-chords hide all tabs e-chords go to top tab

share