Faith no More

home > Faith no More

I Started A Joke Bass Tab

Faith no More

Difficulty: BeginnerBeginner

tuner correct add songbook print version text version save to e-mail
chordsukulelecavacokeyboardtabbassdrumsharmonicsflute Guitar Pro
chords

I Started A Joke

Year: 1998 - Album: Who Cares a Lot: Greatest Hits

	  

 – 
Tabbed by: sinniecoyote


Intro & Verse 1
G|------------------------------------------------------------------------------------|
D|------------------------------------------------------5--5------------------------5-|
A|-------2--2-3--3-5--5-3-2-0------2--2-3--3-5--5-3-2-0------5-3-2--2\1/3--3-5--5-7---|
E|--3--3----------------------3--3----------------------------------------------------|

G|----------------------------------------------------------------------------7-5-4-----|
D|-5--------------------3-4-5--5--------------------3-4-5--5------------------------7-5-|
A|---5-3-2--2-3--3-5--5----------5-3-2--2-3--3-5--5----------5-3-2--2-3--3-5------------|
E|--------------------------------------------------------------------------------------|

G|---------------------------------------------------------------------------------------|
D|-5--------------------3-4-5--5--------------------3-4-5--5--------------------5-5-5-5\-|
A|---5-3-2--2-3--3-5--5----------5-3-2--2-3--3-5--5----------5-3-2--2-3--3-5--5----------|
E|---------------------------------------------------------------------------------------|

Chorus 1
G|------------------------------------------------------------7-----------------------------|
D|----------------------------------------------------------7---7---------------------------|
A|-----------0-1-2--2-2--2-2-3--3-3--3-2-0---------0-5--5-5-------5--2--3---0--0-0--/5--5-3-|
E|-0--0-0--0-------------------------------3--3-3-------------------------3-----------------|

Verse 2
G|-----------------------------------------------------------------------------------------|
D|-5--5--------------------3-4-5--5------------------------3-4-5--5------------------3-4-5-|
A|------5-3-2--2-3--3-5--5----------5-3-2--2-1-3--3\2/5--5----------5-3----3----5--5-------|
E|----------------------------------------------------------------------7-\---5------------|

G|-----------------|
D|-5----5--5-4-3---|
A|----5----------5-|
E|-----------------|

Chorus 2
G|-------------------------------------------------------------------------------2------------|
D|-----------------------4---------------------------------------2------------2----2-1--------|
A|--------7-5-4-5-2--2-2---0-3----3--3-2----5-7\-5----5--2---0-2---2-0---0--0----------5--5-5-|
E|-0--0/7-----------------------3--------3----------5------3-----------3----------------------|

Outro
G|-----------------------------------------------------------------------------------------|
D|---5--5--------------------3-4-5--5--------------------3-4-5--5--------------------3-4-5-|
A|-5------5-3-2--2-3--0-5--5----------5-3-2--2-3--3-5--5----------5-3-2--2-3--3-5--5-------|
E|-----------------------------------------------------------------------------------------|

G|-----------------------------------------------------------------------------------|
D|-5--------------------3-4-5--5--------------------3-4-5--5--------------------3-4--|
A|---5-3-2--2-3--3-5--5----------5-3-2--2-3--3-5--5----------5-3-2--2-3--3-5--5------|
E|-----------------------------------------------------------------------------------|

	  

there isn't a video lesson for this song

request
Search
auto scroll beats size up size down change color hide chords drawings
tab show chords e-chords YouTube Clip e-chords hide all tabs e-chords go to top tab