Face To Face

home > Face To Face

You Couldve Had Everything Bass Tab

Face To Face

Difficulty: nolevelnolevel

tuner correct add songbook print version text version save to e-mail
chordsukulelecavacokeyboardtabbassdrumsharmonicsflute Guitar Pro
chords

You Couldve Had Everything

  		

YOU COULD'VE HAD EVERYTHING By . Album : Reactionary
:
# verse #  *=play x8
G-----------------------------------------|
D-------------------------------------*---|
A---0---5-----------0---5-----------/7----|
E-----------2---0-----------2---0---------|
:
# chorus #  *=play x7
G---------------------------------------------------------------------->|
D----*---*---*-------------------------66-7--77-66-44-42--------------->|
A---5---7---0----*---55-44-22-00-77-99-----7----------------00-22-40--->|
E---------------2----------------------------------------22------------>|
:
G------------|
D----*---*---|
A---5---7----|
E------------|
:
Then play verse
:
# chorus #  *=play x7
G---------------------------------------------------------->|
D----*---*---*-------------------------66-7--77-66-44-42--->|
A---5---7---0----*---55-44-22-00-77-99-----7--------------->|
E---------------2------------------------------------------>|
:
G---------------------------------------|
D-----------------------------------*---|
A---7h9--7h9--7h9--7h9---55545555--7----|
E---------------------------------------|
:
# bridge #  *=play x7
G-------------------------------------|
D----*---*------------*---*-----------|
A---0---5----*---*---0---5----*---*---|
E-----------2---0------------2---0----|
:
Then play verse
:
# chorus #  *=play x7
G---------------------------------------------------------------------->|
D----*---*---*-------------------------66-7--77-66-44-42--------------->|
A---5---7---0----*---55-44-22-00-77-99-----7----------------00-22-40--->|
E---------------2----------------------------------------22------------>|
:
G-------------------------------------------*--------------------->|
D----*---*---*-------------------------*---7---------------------->|
A---5---7---0-------/9999---5545555---7---------7h9--7h9---7h9---->|
E---------------222----------------------------------------------->|
:
G------------------|
D----------*---*---|
A---7h9---5---7----|
E------------------|
:
# outro #
G-------------------------------------------|
D-------------------------------------------|
A---0---5-----------0---5-----------5---0---|
E-----------2---0-----------2---0-----------|
:
Tabbed By Bradley Hall

	  

Search Paypal
auto scroll beats size up size down change color hide chords drawings
tab show chords e-chords YouTube Clip e-chords hide all tabs e-chords go to top tab