Face To Face

home > Face To Face

I Know What You Are Bass Tab

Face To Face

Difficulty: nolevelnolevel

tuner correct add songbook print version text version save to e-mail
chordsukulelecavacokeyboardtabbassdrumsharmonicsflute Guitar Pro
chords

I Know What You Are

  		

After guitar and Drum intro. 
G|--------------| 
D|--------------| 
A|--------------| 
E|-0-12\--------| 

Intro 4x 
G|--------------------------| 
D|--------------------------| 
A|--------------------------| 
E|-3-3-0-6-6-0-3-0-6-0-6-0--| 

Verse 
G|---------------------------------------------------------------| 
D|---------------------------------------------------------------| 
A|-------------------666-0-333-0---------------------66666666----| 
E|-333---333---333-----------------333---333---333---------------| 

G|------------------------------------| 
D|------------------------------------| 
A|-------------------666-0-333-0------| 
E|-333---333---333--------------------| 

Pre-Chorus (Focused and unaffected..) 
G|------------------------------------------| 
D|------------------------------------------| 
A|-----5555--6>--3>------5555--6>--7>-------| 
E|-6>----------------6>---------------------| 

Chorus (you're boring and predictable...) 
G|------------------------------------------| 
D|------------------------------------------| 
A|------5>---3>---6>-----------6>--3>-------| 
E|-3>------------------6>--5>---------------| 

Intro 4x 
Verse 
Pre-Chorus 
Chorus 
Intro 

Bridge (wicked switch) 
G|-----------------------------------------------------------------------| 
D|-----------------------------------------------------------------------| 
A|---------6>--6------6>---------------6>--6------6>---------------------| 
E|-***666---------3>-------3333--6666---------3>------3333--6666---------| 

Outro (...) 
G|-----------------------------------------------| 
D|-----8--------------------8--------------------| 
A|-6666-6\77------------6666-6\77----------------| 
E|------------33233333------------3333--6666-----| 

That's it. Another Great  tune. This one's very easy. 
*NakedBassist

	  

Search Paypal
auto scroll beats size up size down change color hide chords drawings
tab show chords e-chords YouTube Clip e-chords hide all tabs e-chords go to top tab