Evanescence

home > Evanescence

Tourniquet (ver. 2) Bass Tab

Evanescence

Difficulty: nolevelnolevel

tuner correct add songbook print version text version save to e-mail
chordsukulelecavacokeyboardtabbassdrumsharmonicsflute Guitar Pro
chords

Tourniquet (ver. 2)

  		

Band: 
  (Soul Embraced cover)
Album: Fallen (2003)
Tab version: 5-string normal tuning (BEADG)

No idea if this one is correct, the bass can hardly be heard. 
But I played it in my band and it sounds right. 
Be sure to also check my 4-string version. 
For corrections and suggestions mail me at [email protected]
Play along with the song to get the timing right. Have fun.

INTRO
G|------------------------------
D|------------------------------
A|------------------------------
E|------------------------------
B|-55-55-55-55-55-55-55-55-55-55 x2

VERSE1 (after “betrayal..”)
G|-------------------------------------
D|-------------------------------------
A|-------------------------------------
E|-----------------88-8-88--10-10-1010-
B|-55-5-55-5-5-55----------------------  x2

CHORUS
G|--------------------------------------------
D|--------------------------------------------
A|--------------------------------------------
E|-------------------88-88-88--1010-1010-1010-
B|-55-55-55-55-55-55-------------------------- x2

VERSE2 (after “lost for so long..”)
G|-------------------------------------
D|-------------------------------------
A|-------------------------------------
E|-----------------88-8-88--10-10-1010-
B|-55-5-55-5-5-55---------------------- x3

CHORUS
G|--------------------------------------------
D|--------------------------------------------
A|--------------------------------------------
E|-------------------88-88-88--1010-1010-1010-
B|-55-55-55-55-55-55-------------------------- x2

BRIDGE 
G|----------------
D|----------------
A|----------------
E|-------------8--     (hit last note 4 times @ 4th time)
B|-5555555555----- x7

	  

Search Paypal
auto scroll beats size up size down change color hide chords drawings
tab show chords e-chords YouTube Clip e-chords hide all tabs e-chords go to top tab