Engenheiros do Hawaii

Infinita Highway

Engenheiros do Hawaii

bass Advanced advanced

by  EDUARDO_LYVIO

save to print version add songbook text version e-mail correct tuner
chordsukulelecavacokeyboardtabbassdrumsharmonicaflute Guitar Pro
close

there isn't a video lesson for this song

chords

Infinita Highway

Year: 1989 - Album: Maxximum: Engenheiros do Hawaii

	  		 Esses riffs são usados inúmeras vezes ao decorrer da música!! 
  
 
 
  
0:14 
1:21 
2:21 
4:30 
Riff1 (esse Riff é usado nos momentos identificados acima) 
|---------------------------------------------------------------- 
|---------------------------------------------------------------- 
|---------------------------------------------------------------- 
|---------------------------------------------------------------- 
|--------------------------0-5--5---0-7--7----------------------- 
|--0-5--5---0-9--9----------------------------------------------- 
  
  
3:17 
Riff2(é usado apenas uma vez nessa hora aí em cima) 
|---------------------------------------------------------------- 
|---------------------------------------------------------------- 
|---------------------------------------------------------------- 
|---------------------------------------------------------------- 
|-----------------------------------0--5--5/7--5---0-7--7/9-7---- 
|---0-5--5/7--5---0-9--9/10--9----------------------------------- 
 
 

		  

See also:

bass Barão Vermelho - O Poeta Está Vivo bass Capital Inicial - Passageiro(ver.acustica) bass Nenhum de Nós - Camila bass Paralamas do Sucesso - Que país é esse bass Raul Seixas - Al Capone bass Legião Urbana - Quando o sol bater na janela do teu quarto
e-chords

Other versions:

bass Engenheiros do Hawaii - Infinita Highway
auto scroll beats size up size down change color hide chords drawings
tab show chords e-chords YouTube Clip e-chords hide all tabs e-chords go to top tab

share