Engenheiros do Hawaii

Até Quando Você Vai Ficar

Engenheiros do Hawaii

bass nolevel nolevel

by  EDUARDO_LYVIO

save to print version add songbook text version e-mail correct tuner
chordsukulelecavacokeyboardtabbassdrumsharmonicaflute Guitar Pro
close

there isn't a video lesson for this song

chords

Até Quando Você Vai Ficar

	  		(intro) 
G-------------6------------- 
D-----------7--------------- 
A---------7-------------2-4- 
E-5-7-4-5-----------2-4----- 
 
 (refrao 1) 
G-------------------------------------------------------------------- 
D-------------------------------------------------------------------- 
A-------------------------------------------------------------------- 
E-5555557777774444445555552222224444455555577777444444555552222244444 
  tuas palavras,   um espelho,       tuas palavras,   um prisioneiro, 
  duras palavras   uma explosao      duras palavras   uma prisao 
 
 (refrao 2) 
G---------------------------------------------------------------------- 
D-----------------------------------------------6-----6----6----6----66 
A-------------------------------------------------44---44---44---44---- 
E-555555577777774444444555555552222222244444444------------------------ 
  ate quando voce  fazendo o que  ate quando voce  sem saber o que 
  vai ficar        quer comigo    vai ficar        quer de mim? 
 
G------------------------------------------------------------------ 
D------------------------------------------------------------------ 
A------------------------------------------------------------------ 
E-555555555577777777774444444444555555555552222222222244444444444-- 
  ate quando voce  fazendo o que  ate quando voce  sem saber o que 
  vai ficar        quer comigo    vai ficar        quer de mim? 
 
 (refrao 3 - repetir 4 vezes) 
G------------------------------- 
D--------4--------------4---4-6- 
A-44-7-4---7-4---44-7-4---7----- 
E--------------7---------------- 
 
 musica: 
G-(intro)---------------------------------------------------------- 
D------------------------------------------------------------------ 
A--------------2---2-4--------------------2---2-4------------------ 
E------------4---4----------------------4---4---------------------- 
                       tuas palavras,             cristais de visao 
                       como um espelho 
 
G------------------------------------------------------------------ 
D-----------------------------------------------6-4---------------- 
A---2---2-4----------------2---2-4------------------7-6-4---2---2-4 
E-4---4------------------4---4----------------------------4---4---- 
            se refletem,	     cortam a 
	    se quebram	             respiracao 
 
G---------------------------------------------------------------- 
D---------------------------------------------------------------- 
A------------------2---2-4------------2---2-4-------------------- 
E----------------4---4--------------4---4------------------------ 
  tuas palavras,           como uma	      me deixam de fora,	        
  duras palavras	   prisao	       
 
G----------------------------------------------------------- 
D------------------------------6-4-------------------------- 
A---2---2-4------------------------7-6--------------2---2-4- 
E-4---4--------------------------------(refrao 1)-4---4----- 
            fora de circulacao	        
 
G----------------------------------------------------------------- 
D----------------------------------------------------------------- 
A---2---2-4444444-----2---2-4444444---------2---2-4444444--------- 
E-4---4-------------4---4-----------------4---4------------------- 
          sou dado          como um dado          entregue a 
          a sonhos,         em tuas maos          vicios e crencas 
 
G----------------------------------------------------------------- 
D------------------------6-4-------------------------------------- 
A---2---2-4444444------------7-6-4444444---2---2-4444444---------- 
E-4---4----------------------------------4---4-------------------- 
          `as vezes rolo         me achas        quando atravesso 
          pelo chao		 lento		 a escuridao 
 
G----------------------------------------------------------------- 
D---------------------------------------------6-4----------------- 
A---2---2-4444444----------2---2-4444444----------7-6------------- 
E-4---4------------------4---4------------------------(refrao 1)-- 
          por um momento         como um dado 
          me sinto               em tuas maos 
 
G------------------------------------------------------------------ 
D-6-----6----6----6----66------------------------------------------ 
A---44---44---44---44---------------------------------------------- 
E-------------------------(refrao 2/refrao 3/refrao 2 2x/refrao 3)- 
 

		  

See also:

bass Los Hermanos - Retrato pra Iaiá bass Engenheiros do Hawaii - Até o fim bass Lulu Santos - Toda forma de amor bass Cássia Eller - O Segundo Sol bass Legião Urbana - Quando o sol bater na janela do teu quarto (tab p/ baixo) bass Los Hermanos - Anna Julia
e-chords

Other versions:

bass Engenheiros do Hawaii - Até Quando Você Vai Ficar
auto scroll beats size up size down change color hide chords drawings
tab show chords e-chords YouTube Clip e-chords hide all tabs e-chords go to top tab

share with facebook