Emitt Rhodes

Pardom Me

Emitt Rhodes

bass

by  ABELAMIN

save to print version add songbook text version e-mail correct tuner
chordsukulelecavacokeyboardtabbassdrumsharmonicaflute Guitar Pro
close

there isn't a video lesson for this song

chords

Pardom Me

	  		
G|----------------------------------------------------------------| 
D|----------------------------------------------------------------| 
A|3---------------3---3-----------3---------------3---3-------3---| 
E|--------------3-------------3-----------------3-----------------| 

G|----------------------------------------------------------------| 
D|----------------------------------------------------------------| 
A|1---------------1---1-----------1---------------1---1-------1---| 
E|--------------1-------------1-----------------1-----------------| 

G|----------------------------------------------------------------| 
D|----------------------------------------------------------------| 
A|3---------------3---3-----------3---------------3---3-------3---| 
E|--------------3-------------3-----------------3-----------------| 

G|----------------------------------------------------------------| 
D|----------------------------------------------------------------| 
A|1---------------1---1-----------1-------------1-------------2---| 
E|--------------1-------------1-------------------3---3---5-------| 

0:24 

G|----------------------------------------------------------------| 
D|------/-10----9-7---7-------7---5-------5-----5-3---3-------3---| 
A|3---------------------------------------------------------------| 
E|----------------------------------------------------------------| 

G|--------------------------------------------------------| 
D|5---5---5---5---5---5---5---5---------------------------| 
A|--------------------------------3-----------------------| 
E|--------------------------------------------------------| 

0:35 

G|----------------------------------------------------------------| 
D|----------------------------------------------------------------| 
A|3---------------3---3-----------3---------------3---3-------3---| 
E|--------------3-------------3-----------------3-----------------| 

G|----------------------------------------------------------------| 
D|----------------------------------------------------------------| 
A|1---------------1---1-----------1---------------1---1-------1---| 
E|--------------1-------------1-----------------1-----------------| 

G|----------------------------------------------------------------| 
D|----------------------------------------------------------------| 
A|3---------------3---3-----------3---------------3---3-------3---| 
E|--------------3-------------3-----------------3-----------------| 

G|----------------------------------------------------------------| 
D|----------------------------------------------------------------| 
A|1---------------1---1-----------1-------------1-------------2---| 
E|--------------1-------------1-------------------3-------5-------| 

0:59 

G|----------------------------------------------------------------| 
D|------/-10----9-7---7-------7---5-------5-------3---3-------3---| 
A|3---------------------------------------------------------------| 
E|----------------------------------------------------------------| 

G|----------------------------------------------------------------| 
D|5-------5-----5-5---5-----------5-------5-------5---7---9---10--| 
A|----------------------------5-----------------------------------| 
E|----------------------------------------------------------------| 

G|----------------------------------------------------------------| 
D|--------10----\-7---7-------7---5-------5-----5-3---3-------3---| 
A|----------------------------------------------------------------| 
E|----------------------------------------------------------------| 

G|--------------------------------| 
D|--------------------------------| 
A|3-------------------------------| 
E|--------------------------------| 

1:19 

G|----------------------------------------------------------------| 
D|----------------------------------------------------------------| 
A|3---------------3---3-----------3---------------3---3-------3---| 
E|--------------3-------------3-----------------3-----------------| 

G|----------------------------------------------------------------| 
D|----------------------------------------------------------------| 
A|1---------------1---1-----------1---------------1---1-------1---| 
E|--------------1-------------1-----------------1-----------------| 

G|----------------------------------------------------------------| 
D|----------------------------------------------------------------| 
A|3---------------3---3-----------3---------------3---3-------3---| 
E|--------------3-------------3-----------------3-----------------| 

G|----------------------------------------------------------------| 
D|----------------------------------------------------------------| 
A|1---------------1---1-----------1-------------1-------------2---| 
E|--------------1-------------1-------------------3---3---5-------| 

1:43 

G|----------------------------------------------------------------| 
D|------/-10----9-7---7-------7---5-------5-----5-3---3-------3---| 
A|3---------------------------------------------------------------| 
E|----------------------------------------------------------------| 

G|----------------------------------------------------------------| 
D|5---5---5---5---5---5---5---5---5-------5-------5---7---9---10--| 
A|----------------------------------------------5-----------------| 
E|----------------------------------------------------------------| 

G|----------------------------------------------------------------| 
D|--------10----\-7---7-------7---5-------5-----5-3---3-------3---| 
A|----------------------------------------------------------------| 
E|----------------------------------------------------------------| 

G|--------------------------------| 
D|--------------------------------| 
A|3-------------------------------| 
E|--------------------------------| 

2:03 Until fadeout. 

G|----------------------------------------------------------------| 
D|----------------------------------------------------------------| 
A|3---------------3---3-----------3---------------3---3-------3---| 
E|--------------3-------------3-----------------3-----------------| 

G|----------------------------------------------------------------| 
D|----------------------------------------------------------------| 
A|1---------------1---1-----------1---------------1---1-------1---| 
E|--------------1-------------1-----------------1-----------------| 

G|----------------------------------------------------------------| 
D|----------------------------------------------------------------| 
A|3---------------3---3-----------3---------------3---3-------3---| 
E|--------------3-------------3-----------------3-----------------| 

G|----------------------------------------------------------------| 
D|----------------------------------------------------------------| 
A|1---------------1---1-----------1-------------1-------------2---| 
E|--------------1-------------1-------------------3---3---5-------| 
		  

See also:

bass Johnny Cash - Look For Me bass 18 Hertz - Hey Lord bass Johnny Cash - Orange Blossom Special bass Fats Domino - Blueberry Hill bass Free - Over The Green Hills Part 1 bass Creedence Clearwater Revival - Someday Never Comes
e-chords

Other versions:

bass Emitt Rhodes - Pardom Me
auto scroll beats size up size down change color hide chords drawings
tab show chords e-chords YouTube Clip e-chords hide all tabs e-chords go to top tab

share