Eminem

Hailies Song

Eminem

bass Beginner beginner

save to print version add songbook text version e-mail correct tuner
chordsukulelecavacokeyboardtabbassdrumsharmonicaflute Guitar Pro
close

there isn't a video lesson for this song

chords

Hailies Song

	  		

Band: 
 

Tabbed by: elibailey ([email protected])
Comments, Question, Welcome.

tuning: Standard (E-A-D-G)


Main Riff
G|-----------------------------|
D|-----------------------------|
A|-0-0------------0-0----------|
E|------1-1--3-3---------------|

G|-----------------------------|
D|-----------------------------|
A|-0-0--3-3--2-2---------------|
E|----------------0--0-3-0-3---|

		  

See also:

bass Eminem - The Way I Am bass Eminem - Hailie's Song bass Dmx - Who We Be bass Eminem - Without Me (ver. 3) bass Eminem - Guilty Consience bass Beastie Boys - Sabrosa
e-chords

Other versions:

bass Eminem - Hailie's Song bass Eminem - Hailies Song
auto scroll beats size up size down change color hide chords drawings
tab show chords e-chords YouTube Clip e-chords hide all tabs e-chords go to top tab

share