Eminem

Hailes Song

Eminem

bass Easy easy

save to print version add songbook text version e-mail correct tuner
chordsukulelecavacokeyboardtabbassdrumsharmonicaflute Guitar Pro
close

there isn't a video lesson for this song

chords

Hailes Song

	  		

 
Title: Hailie's Song
Tabbed: Trin ([email protected])

Tuning: E A D G (standard)

Sorry for repost, ' but in the old one meant it wouldn't show up in the list.
h = hammer
p = pulloff

The whole song is basically this, all the way through...

G--------------------------
D--------------------------
A--------------------------
E-5-5--1-1--3-3--5-5--0h3--

play this for three bars
G---------------------------
D---------------------------
A------3-3--2-2-------------
E-5-5------------0--0h3-0h3-

then (roughly) every 4th bar, play this instead:
G---------------------------
D---------------------------
A------3-3--2-2-----0h5h7p5-
E-5-5------------0----------

		  

See also:

bass Eminem - The Way I Am bass Eminem - Hailie's Song bass Dmx - Who We Be bass Eminem - Without Me (ver. 3) bass Eminem - Guilty Consience bass Beastie Boys - Sabrosa
e-chords

Other versions:

bass Eminem - Hailes Song
auto scroll beats size up size down change color hide chords drawings
tab show chords e-chords YouTube Clip e-chords hide all tabs e-chords go to top tab

share