Electric Six

I Invented The Night

Electric Six

bass

save to print version add songbook text version e-mail correct tuner
chordsukulelecavacokeyboardtabbassdrumsharmonicaflute Guitar Pro
close

there isn't a video lesson for this song

chords

I Invented The Night

	  		

Tabbed by Systemsugar

Hereís the bass tab for I invented the night
Standard tuning

Main Riff x3
| ------------------------------------------|
| ------------------------------------------|
| 3-3--3-3---5-5--5-4-----------------------|
| ----------------------5-5--5-3-5-5--5-3-5-|

Then
| -----------------------------------------------|
| -----------------------------------------------|
| 3-3--3-3---5-5--5-4----------------------------|
| -----------------------5-5--5-3-5-5--3-5-3-5-3-|

Pre-Chorus
| ----------------------------------------------------------------------|
| ----------------------------------------------------------------------|
| --------------------0-0-0-0-0-0-0-0--3-3-3-3-3-3-3-3--5-5-5-5-5-5-5-3-|
| 1-1-1-1-1-1-1-3-------------------------------------------------------|

Chorus
| -------------------------------------------------------------|
| -------------------------------------------------------------|
| -------0-00-00-----------0-00-00------33-33-333--5-55--------|
| 1-11------------3--1-11------------3------------------1-11---|

Main Riff x2
| ------------------------------------------|
| ------------------------------------------|
| 3-3--3-3---5-5--5-4-----------------------|
| ----------------------5-5--5-3-5-5--5-3-5-|

Then
| ------------------------------------------|
| ------------------------------------------|
| 3-3--3-3---5-5--5-4-----------------------|
| ----------------------5-5--5-3-5-5--5-5-3-|
Pre-Chorus
| ----------------------------------------------------------------------|
| ----------------------------------------------------------------------|
| --------------------0-0-0-0-0-0-0-0--3-3-3-3-3-3-3-3--5-5-5-5-5-5-5-3-|
| 1-1-1-1-1-1-1-3-------------------------------------------------------|

Chorus
| -----------------------------------------------------------|
| -----------------------------------------------------------|
| -------0-00-00-----------0-00-00-----33-33-333--5-55-------|
| 1-11-----------3--1-11------------3------------------1-11--|

Guitar Solo
| -----------------------------------------------------------|
| -----------------------------------------------------------|
| 3-3-0-3-3-3-0--5-5-3-5-5-5-3-------------------------------|
| ------------------------------5-5-3-5-5-5-3--5-5-1-3-3-3-1-|

| -------------------------------------------------------------|
| -------------------------------------------------7-7-5-------|
| 3-3-0-3-3-3-0--5-5-3-5-5-5-3---------------------------7-5-3-|
| ------------------------------5-5-3-5-5-5-3--5-5-------------|

Interlude
| -------------------------------------------------------------------|
| -------------------------------------------------------------------|
| -----------------0-0-0-0-0-0-0-0--3-3-3-3-3-3-0-3--3-3-3-3-3-3-0---|
| 3-3-3-3-3-3-3-3--------------------------------------------------3-|

| --------------------------------------------------------------------|
| --------------------------------------------------------------------|
| -----------------0-0-0-0-0-0-0-0--1-1-1-1-1-1-1-1--3-3-3-3-3-3-3-3/-|
| 3-3-3-3-3-3-3-3-----------------------------------------------------|

Drum Fill

Last Verse
| --------------------------------------------------|
| ------5-7-5----------7-9-7------------------------|
| 3-3-7-------7--5-5-9-------9----------------------|
| ------------------------------5-5--5-3-5-5--5-3-5-|

| --------------------------------------------------|
| -------5-7-5----------7-9-7-----------------------|
| 3-3-7--------7--5-5-9-------9---------------------|
| ------------------------------5-5--5-3-5-5--5-5-3-|

Pre-Chorus
| -------------------------------------------------------------------|
| -------------------------------------------------------------------|
| -----------------0-0-0-0-0-0-0-0--3-3-3-3-3-3-3-3--5-5-5-5-5-5-5-3-|
| 1-1-1-1-1-1-1-3----------------------------------------------------|

Chorus
| ---------------------------------------------------------|
| ---------------------------------------------------------|
| -------0-00-00-----------0-00-00----33-33-333--5-55------|
| 1-11------------3--1-11----------3------------------1-11-|

Outro x2
| ----------------------|
| ----------------------|
| 33-33-333--5-55-------|
| -----------------1-11-|

End
| -------------------------|
| -------------------------|
| 33-33-333--5-55--------0~|
| -----------------1-11----|

Thatís it!

		  

See also:

bass The White Stripes - Seven nation army bass Counting Crows - Mr Jones bass The Killers - Somebody Told Me bass Dave Matthews Band - #41 bass Kiss - Black Diamond bass Foo Fighters - Everlong
e-chords

Other versions:

bass Electric Six - I Invented The Night
auto scroll beats size up size down change color hide chords drawings
tab show chords e-chords YouTube Clip e-chords hide all tabs e-chords go to top tab

share