Electric Six

Gay Bar

Electric Six

bass Beginner beginner

save to print version add songbook text version e-mail correct tuner
chordsukulelecavacokeyboardtabbassdrumsharmonicaflute Guitar Pro
close

there isn't a video lesson for this song

chords

Gay Bar

	  		





Tabbed by Systemsugar

This is the bass tab for the song Gay Bar. It's my first tab.

Guitar intro x2
Intro x1
G -------------------------------------------------------|
D -------------------------------------------------------|
A 15/17-17-17-17-17-17-17-17-17-17-17-17-17-15-12-11-10-8|  
E -------------------------------------------------------|

Verse x3
G -------------------------|
D -------------------------|
A 5-5-----3----3-3-----3---|
E -----3-4--4------3-4--4--|

Then
G-----|
D-----|
A--5--|
E-----|

Verse x3
G -------------------------|
D -------------------------|
A 5-5-----3----3-3-----3---|
E -----3-4--4------3-4--4--|

Then
G -------7-5---------|
D -----7-----7-7-5-3-|
A -5-----------------|
E -------------------|

Bridge x8 
G ---------------------------|
D ---------------------------|
A 5-5--5-5-5--3-3-3--3-3-3-3-|
E ---------------------------|

Verse x3
G -------------------------|
D -------------------------|
A 5-5-----3----3-3-----3---|
E -----3-4--4------3-4--4--|

Then
G ------------------------------------------|
D ------------------------------------------|
A 5-0-5-0-5-0-5-0-5-5-3-0-3-0-3-0-3-0-3-3-5~|
E ------------------------------------------|

Guitar only x4

Verse x3
G -------------------------|
D -------------------------|
A 5-5-----3----3-3-----3---|
E -----3-4--4------3-4--4--|

Then
G --------------------------------------|
D --------------------------------------|
A 5-0-5-0-5-0-5-0-5-5-3-0-3-0-3-0-3-0-3-|
E --------------------------------------|

Solo x3
G ---------------------------|
D ---------------------------|
A 5-5--5-5-5--3-3-3--3-3-3-3-|
E ---------------------------|
 
Then a short fill
G ------|
D ------|
A 5/9\5-|
E ------|

Solo x3
G ---------------------------|
D ---------------------------|
A 5-5--5-5-5--3-3-3--3-3-3-3-|
E ---------------------------|

Then
G ---------------------------|
D ---------------------------|
A 5-5--5-5-5--3-3-3--3-0-3-0-|
E ---------------------------|

Outro x3
G ---------------------------|
D ---------------------------|
A 5-5--5-5-5--3-3-3--3-3-3-3-|
E ---------------------------|

End
G -----------------------------|
D -----------------------------|
A 5-5--5-5-5--3-3-3--3-0-3-0-5~|
E -----------------------------|

Thatís It!

		  

See also:

bass The White Stripes - Seven nation army bass Counting Crows - Mr Jones bass The Killers - Somebody Told Me bass Dave Matthews Band - #41 bass Kiss - Black Diamond bass Foo Fighters - Everlong
e-chords

Other versions:

bass Electric Six - Gay Bar bass Electric Six - Gay Bar (ver. 2) bass Electric Six - Gay Bar (ver. 3)
auto scroll beats size up size down change color hide chords drawings
tab show chords e-chords YouTube Clip e-chords hide all tabs e-chords go to top tab

share