Electric Six

Down At Mcdonnelzzz

Electric Six

bass

by  TERCMORAES

save to print version add songbook text version e-mail correct tuner
chordsukulelecavacokeyboardtabbassdrumsharmonicaflute Guitar Pro
close

there isn't a video lesson for this song

chords

Down At Mcdonnelzzz

	  		Verse 

   1   2   3   4     1   2   3   4     1   2   3   4     1   2   3   4     
G|-----------------|-----------------|-----------------|-----------------| 
D|-----------------|-----------------|-----------------|-----------------| 
A|-----------------|-----------------|-----------------|-----------------| 
E|-0-0-00--8-------|-5-5-55--3-------|-0-0-00-00-------|-0-0-00-00-------| x3 

   1   2   3   4     1   2   3   4     1   2   3   4     1   2   3   4     
G|-----------------|-----------------|-----------------|-----------------| 
D|-----------------|-----------------|-----------------|-----------------| 
A|-----------------|-----------------|-----------------|------------/7\--| 
E|-0-0-00--8-------|-5-5-55--3-------|-0-0-00-00-------|-----------------| 

Chorus 

   1   2   3   4     1   2   3   4     1   2   3   4     1   2   3   4     
G|-----------------|-----------------|-----------------|-----------------| 
D|-----------------|-----------------|-----------------|-----------------| 
A|-----------------|-----------------|-----------------|-----------------| 
E|-0-0-00--8-------|-5-5-55--3-------|-0-0-00-00-------|-0-0-00-00-------| x2 

Bridge 

   1   2   3   4     1   2   3   4     1   2   3   4     
G|-----------------|-----------------|-----------------| 
D|-----------------|-----------------|-----------------| 
A|-----------------|-----------------|-----------------| 
E|-0-0-0-0-0-0-0-0-|-0-0-0-0-0-0-0-0-|-5-5-5-5-5-5-5-5-| 

   1   2   3   4     1   2   3   4     1   2   3   4         
G|-----------------|-----------------|-----------------| 
D|-----------------|-----------------|-----------------| 
A|-----------------|-----------------|-----------------| 
E|-8-8-8-8-8-8-8-8-|-5-5-5-5-5-5-5-5-|-8-8-8-8-8-8-8-8-| 

   1   2   3   4     1   2   3   4     1   2   3   4     1   2   3   4     
G|-----------------|-----------------|-----------------|-----------------| 
D|-----------------|-----------------|-----------------|-----------------| 
A|-7---5-----------|-----------------|-----------------|-7---------------| 
E|---------8---5---|-0-0-00-00-------|-0-0-00-00-------|-----------------| 

Chorus 

   1   2   3   4     1   2   3   4     1   2   3   4     1   2   3   4     
G|-----------------|-----------------|-----------------|-----------------| 
D|-----------------|-----------------|-----------------|-----------------| 
A|-----------------|-----------------|-----------------|-----------------| 
E|-0-0-00--8-------|-5-5-55--3-------|-0-0-00-00-------|-0-0-00-00-------| 

Outro 

   1   2   3   4     1   2   3   4     
G|-----------------|-----------------| 
D|-----------------|-----------------| 
A|-----------------|-----------------| 
E|-0-0-00--8-------|-5-5-55--3-------| x9 


*********************************** 

| /   Slide-up 
| \   Slide-down 

*********************************** 
		  

See also:

bass The White Stripes - Seven nation army bass Counting Crows - Mr Jones bass The Killers - Somebody Told Me bass Dave Matthews Band - #41 bass Kiss - Black Diamond bass Foo Fighters - Everlong
e-chords

Other versions:

bass Electric Six - Down At Mcdonnelzzz
auto scroll beats size up size down change color hide chords drawings
tab show chords e-chords YouTube Clip e-chords hide all tabs e-chords go to top tab

share