Electric Light Orchestra

home > Electric Light Orc...

So Serious Bass Tab

Electric Light Orchestra

Difficulty: nolevelnolevel

by hugo%5Frodrigues

tuner correct add songbook print version text version save to e-mail
chordsukulelecavacokeyboardtabbassdrumsharmonicsflute Guitar Pro
chords

So Serious

	  Intro 

G|----------------|----------------| 
D|----------------|----------------| 
A|----------------|----------------| 
E|----------------|----------------| 


Verse 

G|----------------|----------------|----------------|----------------| 
D|----------------|----------------|----------------|----------------| 
A|3-3-3-3-3-3-3-3-|----------------|5-5-5-5-5-5-5-5-|----------------| 
E|----------------|3-3-3-3-3-3-3-3-|----------------|5-5-5-5-1-1-3-3-| 

G|----------------|----------------|----------------|----------------| 
D|----------------|----------------|----------------|----------------| 
A|3-3-3-3-3-3-3-3-|----------------|5-5-5-5-5-5-5-5-|----------------| 
E|----------------|3-3-3-3-3-3-3-3-|----------------|5-5-5-5-1-1-3-3-| 


Pre-Chorus 

G|----------------|----------------|----------------|----------------| 
D|----------------|----------------|----------------|----------------| 
A|3-3-3-3-3-3-3-3-|5-5-5-5-5-5-5-5-|7-7-7-7-7-7-7-7-|8-8-8-8-8-8-8-8-| 
E|----------------|----------------|----------------|----------------| 

G|----------------| 
D|----------------| 
A|8-8-8-8-8-8-8-8-| 
E|----------------| 


Chorus 

G|----------------|----------------|----------------|----------------| 
D|----------------|----------------|----------------|----------------| 
A|----------------|--------3-3-3-3-|----------------|--------3-3-3-3-| 
E|5-5-5-5-1-1-1-1-|3-3-3-3---------|5-5-5-5-1-1-1-1-|3-3-3-3---------| 

G|----------------|----------------| 
D|----------------|----------------| 
A|3-3-3-3---------|----------------| 
E|--------3-3-3-3-|5-5-5-5-1-1-1-1-| 

G|----------------|----------------|----------------|--------| 
D|----------------|----------------|----------------|--------| 
A|----------------|--------3-3-3-3-|----------------|--------| 
E|5-5-5-5-1-1-1-1-|3-3-3-3---------|5-5-5-5-1-1-1-1-|3-3-3-3-| 


Verse 

G|----------------|----------------|----------------|----------------| 
D|----------------|----------------|----------------|----------------| 
A|3-3-3-3-3-3-3-3-|----------------|5-5-5-5-5-5-5-5-|----------------| 
E|----------------|3-3-3-3-3-3-3-3-|----------------|5-5-5-5-1-1-3-3-| 

G|----------------|----------------|----------------|----------------| 
D|----------------|----------------|----------------|----------------| 
A|3-3-3-3-3-3-3-3-|----------------|5-5-5-5-5-5-5-5-|----------------| 
E|----------------|3-3-3-3-3-3-3-3-|----------------|5-5-5-5-1-1-3-3-| 


Pre-Chorus 

G|----------------|----------------|----------------|----------------| 
D|----------------|----------------|----------------|----------------| 
A|3-3-3-3-3-3-3-3-|5-5-5-5-5-5-5-5-|7-7-7-7-7-7-7-7-|8-8-8-8-8-8-8-8-| 
E|----------------|----------------|----------------|----------------| 

G|----------------| 
D|----------------| 
A|8-8-8-8-8-8-8-8-| 
E|----------------| 


Chorus 

G|----------------|----------------|----------------|----------------| 
D|----------------|----------------|----------------|----------------| 
A|----------------|--------3-3-3-3-|----------------|--------3-3-3-3-| 
E|5-5-5-5-1-1-1-1-|3-3-3-3---------|5-5-5-5-1-1-1-1-|3-3-3-3---------| 

G|----------------|----------------| 
D|----------------|----------------| 
A|3-3-3-3---------|----------------| 
E|--------3-3-3-3-|5-5-5-5-1-1-1-1-| 

G|----------------|----------------|----------------|----------------| 
D|----------------|----------------|----------------|----------------| 
A|----------------|--------3-3-3-3-|----------------|--------3-3-3-3-| 
E|5-5-5-5-1-1-1-1-|3-3-3-3---------|5-5-5-5-1-1-1-1-|3-3-3-3---------| 

G|----------------|--------| 
D|----------------|--------| 
A|----------------|--------| 
E|5-5-5-5-1-1-1-1-|3-3-3-3-| 


Verse 

G|----------------|----------------|----------------|----------------| 
D|----------------|----------------|----------------|----------------| 
A|3-3-3-3-3-3-3-3-|----------------|5-5-5-5-5-5-5-5-|----------------| 
E|----------------|3-3-3-3-3-3-3-3-|----------------|5-5-5-5-1-1-3-3-| 

G|----------------|----------------|----------------|----------------| 
D|----------------|----------------|----------------|----------------| 
A|3-3-3-3-3-3-3-3-|----------------|5-5-5-5-5-5-5-5-|----------------| 
E|----------------|3-3-3-3-3-3-3-3-|----------------|5-5-5-5-1-1-3-3-| 


Pre-Chorus 

G|----------------|----------------|----------------|----------------| 
D|----------------|----------------|----------------|----------------| 
A|3-3-3-3-3-3-3-3-|5-5-5-5-5-5-5-5-|7-7-7-7-7-7-7-7-|8-8-8-8-8-8-8-8-| 
E|----------------|----------------|----------------|----------------| 

G|----------------| 
D|----------------| 
A|8-8-8-8-8-8-8-8-| 
E|----------------| 


Chorus 

G|----------------|----------------|----------------|----------------| 
D|----------------|----------------|----------------|----------------| 
A|----------------|--------3-3-3-3-|----------------|--------3-3-3-3-| 
E|5-5-5-5-1-1-1-1-|3-3-3-3---------|5-5-5-5-1-1-1-1-|3-3-3-3---------| 

G|----------------|----------------| 
D|----------------|----------------| 
A|3-3-3-3---------|----------------| 
E|--------3-3-3-3-|5-5-5-5-1-1-1-1-| 

G|----------------|----------------|----------------|----------------| 
D|----------------|----------------|----------------|----------------| 
A|----------------|--------3-3-3-3-|----------------|--------3-3-3-3-| 
E|5-5-5-5-1-1-1-1-|3-3-3-3---------|5-5-5-5-1-1-1-1-|3-3-3-3---------| 


Outro repeat till song end 

G|----------------|----------------|----------------|----------------| 
D|----------------|----------------|----------------|----------------| 
A|----------------|--------3-3-3-3-|----------------|--------3-3-3-3-| 
E|5-5-5-5-1-1-1-1-|3-3-3-3---------|5-5-5-5-1-1-1-1-|3-3-3-3---------| 


************************************ 
	  

there isn't a video lesson for this song

request
Search Paypal
auto scroll beats size up size down change color hide chords drawings
tab show chords e-chords YouTube Clip e-chords hide all tabs e-chords go to top tab