Electric Light Orchestra

home > Electric Light Orc...

Last Train To London Bass Tab

Electric Light Orchestra

Difficulty: ExpertExpert

tuner correct add songbook print version text version save to e-mail
chordsukulelecavacokeyboardtabbassdrumsharmonicsflute Guitar Pro
chords

Last Train To London

	  


By 
Tabbed by [email protected]

Intro

|-----9-7-9-7---7-9-7-9-7-9-7---7----|--------| 
|-------------9---------------9------|--REST--|
|------------------------------------|--------|
|------------------------------------|--------|

|-(7)-9-7-9-7---7-9-7-9-7-9-7---7----|--------| 
|-------------9---------------9------|--REST--|
|------------------------------------|--------|
|------------------------------------|--------|

|-----------7---7-9---|-----------7---7-9---|
|---------9---9-------|---------9---9-------|
|-7-7--10-------------|-7-7--10-------------|
|--(0)----------------|--(0)----------------|

|-----------7---7-9---|-----------7---7-9---|
|---------9---9-------|---------9---9-------|
|-7-7--10-------------|-7-7--10-------------|
|--(0)----------------|--(0)----------------|

Verse 1

|-----------7---7-9-----|-----------7---7-9-----|
|---------9---9---------|---------9---9---------|
|-7-7--10---------------|-7-7--10---------------|
|--(0)------------------|--(0)------------------|

|-----------------------|-----------------------|
|-----------7---7-9-----|-----------7---7-9-----|
|---------9---9---------|---------9---9---------|
|-7-7--10---------------|-7-7--10---------------|

|-----------------------|-----------------------|
|-----------5---5-7-----|-----------7---7-9-----|
|---------7---7---------|---------9---9---------|
|-5-5--8----------------|-7-7--10---------------|


|-----------7---7-9-----|-----9-7-9-7---7-9-7-9-7-9-7---7----|
|---------9---9---------|-------------9---------------9------|
|-7-7--10---------------|-7----------------------------------|   
|--(0)------------------|------------------------------------|  

|-----------7---7-9-----|-----------7---7-9-----|
|---------9---9---------|---------9---9---------|
|-7-7--10---------------|-7-7--10---------------|
|--(0)------------------|--(0)------------------|

|-----------------------|-----------------------|
|-----------7---7-9-----|-----------7---7-9-----|
|---------9---9---------|---------9---9---------|
|-7-7--10---------------|-7-7--10---------------|

|-----------------------|-----------------------|
|-----------5---5-7-----|-----------7---7-9-----|
|---------7---7---------|---------9---9---------|
|-5-5--8----------------|-7-7--10---------------|

|-----------------|-----------------|
|-----------------|-----------------|
|-3-3-3-3-3-3-3-3-|-5-5-5-5-5-5-5-5-|
|-----------------|-----------------|

Chorus 1

                            
|----12-12----12-12---12-12----12-12-|------------------10-10---11-11-|
|------------------------------------|---10-10--10-10-----------------|
|-10-------10------10-------10-------|----------------8-------9-------|
|------------------------------------|-8------8-----------------------|

|----12-12----12-12---12-12----12-12-|------------------10-10---11-11-|
|------------------------------------|---10-10--10-10-----------------|
|-10-------10------10-------10-------|----------------8-------9-------|
|------------------------------------|-8------8-----------------------|

|----12-12----12-12---12-12----12-12-|-----------9-9------------------|
|------------------------------------|---10-10----------12-12---10-10-|
|-10-------10------10-------10-------|---------7----------------------|
|------------------------------------|-8-------------10-------8-------|

|-------------------------|----------------------------|
|---9-9---9-9---9-9---9-9-|---7-7---9-9---10-10---7-7--|
|-------------------------|----------------------------|
|-7-----7-----7-----7-----|-5-----7-----8-------5------|

|----12-12----12-12---12-12----12-12-|------------------10-10---11-11-|
|------------------------------------|---10-10--10-10-----------------|
|-10-------10------10-------10-------|----------------8-------9-------|
|------------------------------------|-8------8-----------------------|

|----12-12----12-12---12-12----12-12-|-----------9-9------------------|
|------------------------------------|---10-10----------12-12---10-10-|
|-10-------10------10-------10-------|---------7----------------------|
|------------------------------------|-8-------------10-------8-------|

|-------------------------|------------------------------|
|---9-9---9-9---9-9---9-9-|---7-7---9-9---10-10----12-12-|
|-------------------------|------------------------------|
|-7-----7-----7-----7-----|-5-----7-----8-------10-------|

|-----------7---7-9---|-----9-7-9-7---7-9-7-9-7-9-7---7----|
|---------9---9-------|-------------9---------------9------|
|-7-7--10-------------|-7----------------------------------|   
|--(0)----------------|------------------------------------|

Verse 2

|-----------7---7-9-----|-----------7---7-9-----|
|---------9---9---------|---------9---9---------|
|-7-7--10---------------|-7-7--10---------------|
|--(0)------------------|--(0)------------------|

|-----------------------|-----------------------|
|-----------7---7-9-----|-----------7---7-9-----|
|---------9---9---------|---------9---9---------|
|-7-7--10---------------|-7-7--10---------------|

|-----------------------|-----------------------|
|-----------5---5-7-----|-----------7---7-9-----|
|---------7---7---------|---------9---9---------|
|-5-5--8----------------|-7-7--10---------------|


|-----------7---7-9-----|-----9-7-9-7---7-9-7-9-7-9-7---7----|
|---------9---9---------|-------------9---------------9------|
|-7-7--10---------------|-7----------------------------------|   
|--(0)------------------|------------------------------------|  

|-----------7---7-9-----|-----------7---7-9-----|
|---------9---9---------|---------9---9---------|
|-7-7--10---------------|-7-7--10---------------|
|--(0)------------------|--(0)------------------|

|-----------------------|-----------------------|
|-----------7---7-9-----|-----------7---7-9-----|
|---------9---9---------|---------9---9---------|
|-7-7--10---------------|-7-7--10---------------|

|-----------------------|-----------------------|
|-----------5---5-7-----|-----------7---7-9-----|
|---------7---7---------|---------9---9---------|
|-5-5--8----------------|-7-7--10---------------|

|-----------------|-----------------|
|-----------------|-----------------|
|-3-3-3-3-3-3-3-3-|-5-5-5-5-5-5-5-5-|
|-----------------|-----------------|

Chorus 2

|----12-12----12-12---12-12----12-12-|------------------10-10---11-11-|
|------------------------------------|---10-10--10-10-----------------|
|-10-------10------10-------10-------|----------------8-------9-------|
|------------------------------------|-8------8-----------------------|

|----12-12----12-12---12-12----12-12-|------------------10-10---11-11-|
|------------------------------------|---10-10--10-10-----------------|
|-10-------10------10-------10-------|----------------8-------9-------|
|------------------------------------|-8------8-----------------------|

|----12-12----12-12---12-12----12-12-|-----------9-9------------------|
|------------------------------------|---10-10----------12-12---10-10-|
|-10-------10------10-------10-------|---------7----------------------|
|------------------------------------|-8-------------10-------8-------|

|-------------------------|----------------------------|
|---9-9---9-9---9-9---9-9-|---7-7---9-9---10-10---7-7--|
|-------------------------|----------------------------|
|-7-----7-----7-----7-----|-5-----7-----8-------5------|

|----12-12----12-12---12-12----12-12-|------------------10-10---11-11-|
|------------------------------------|---10-10--10-10-----------------|
|-10-------10------10-------10-------|----------------8-------9-------|
|------------------------------------|-8------8-----------------------|

|----12-12----12-12---12-12----12-12-|-----------9-9------------------|
|------------------------------------|---10-10----------12-12---10-10-|
|-10-------10------10-------10-------|---------7----------------------|
|------------------------------------|-8-------------10-------8-------|

|-------------------------|------------------------------|
|---9-9---9-9---9-9---9-9-|---7-7---9-9---10-10----12-12-|
|-------------------------|------------------------------|
|-7-----7-----7-----7-----|-5-----7-----8-------10-------|

|-----------7---7-9---|-----9-7-9-7---7-9-7-9-7-9-7---7----|
|---------9---9-------|-------------9---------------9------|
|-7-7--10-------------|-7----------------------------------|   
|--(0)----------------|------------------------------------|

Solo 

|-----------7---7-9-----|-----------7---7-9-----|
|---------9---9---------|---------9---9---------|
|-7-7--10---------------|-7-7--10---------------|
|--(0)------------------|--(0)------------------|

|-----------------------|-----------------------|
|-----------7---7-9-----|-----------7---7-9-----|
|---------9---9---------|---------9---9---------|
|-7-7--10---------------|-7-7--10---------------|

|-----------------------|-----------------------|
|-----------5---5-7-----|-----------7---7-9-----|
|---------7---7---------|---------9---9---------|
|-5-5--8----------------|-7-7--10---------------|


|-----------7---7-9-----|-----9-7-9-7---7-9-7-9-7-9-7---7----|
|---------9---9---------|-------------9---------------9------|
|-7-7--10---------------|-7----------------------------------|   
|--(0)------------------|------------------------------------|  

Verse 3

|-----------7---7-9-----|-----------7---7-9-----|
|---------9---9---------|---------9---9---------|
|-7-7--10---------------|-7-7--10---------------|
|--(0)------------------|--(0)------------------|

|-----------------------|-----------------------|
|-----------7---7-9-----|-----------7---7-9-----|
|---------9---9---------|---------9---9---------|
|-7-7--10---------------|-7-7--10---------------|

|-----------------------|-----------------------|
|-----------5---5-7-----|-----------7---7-9-----|
|---------7---7---------|---------9---9---------|
|-5-5--8----------------|-7-7--10---------------|

|-----------------|-----------------|
|-----------------|-----------------|
|-3-3-3-3-3-3-3-3-|-5-5-5-5-5-5-5-5-|
|-----------------|-----------------|

Chorus 3

                     
|----12-12----12-12---12-12----12-12-|------------------10-10---11-11-|
|------------------------------------|---10-10--10-10-----------------|
|-10-------10------10-------10-------|----------------8-------9-------|
|------------------------------------|-8------8-----------------------|

|----12-12----12-12---12-12----12-12-|------------------10-10---11-11-|
|------------------------------------|---10-10--10-10-----------------|
|-10-------10------10-------10-------|----------------8-------9-------|
|------------------------------------|-8------8-----------------------|

|----12-12----12-12---12-12----12-12-|-----------9-9------------------|
|------------------------------------|---10-10----------12-12---10-10-|
|-10-------10------10-------10-------|---------7----------------------|
|------------------------------------|-8-------------10-------8-------|

|-------------------------|----------------------------|
|---9-9---9-9---9-9---9-9-|---7-7---9-9---10-10---7-7--|
|-------------------------|----------------------------|
|-7-----7-----7-----7-----|-5-----7-----8-------5------|

|----12-12----12-12---12-12----12-12-|------------------10-10---11-11-|
|------------------------------------|---10-10--10-10-----------------|
|-10-------10------10-------10-------|----------------8-------9-------|
|------------------------------------|-8------8-----------------------|

|----12-12----12-12---12-12----12-12-|-----------9-9------------------|
|------------------------------------|---10-10----------12-12---10-10-|
|-10-------10------10-------10-------|---------7----------------------|
|------------------------------------|-8-------------10-------8-------|

|-------------------------|------------------------------|
|---9-9---9-9---9-9---9-9-|---7-7---9-9---10-10----12-12-|
|-------------------------|------------------------------|
|-7-----7-----7-----7-----|-5-----7-----8-------10-------|

|-----9-7-9-7---7-9-7-9-7-9-7---7----|
|-------------9---------------9------|
|------------------------------------|
|------------------------------------|

|----12-12----12-12---12-12----12-12-|------------------10-10---11-11-|
|------------------------------------|---10-10--10-10-----------------|
|-10-------10------10-------10-------|----------------8-------9-------|
|------------------------------------|-8------8-----------------------|

|----12-12----12-12---12-12----12-12-|-----------9-9------------------|
|------------------------------------|---10-10----------12-12---10-10-|
|-10-------10------10-------10-------|---------7----------------------|
|------------------------------------|-8-------------10-------8-------|

|-------------------------|------------------------------|
|---9-9---9-9---9-9---9-9-|---7-7---9-9---10-10----12-12-|
|-------------------------|------------------------------|
|-7-----7-----7-----7-----|-5-----7-----8-------10-------|

|-----9-7-9-7---7-9-7-9-7-9-7---7----|-----9-7-9-7---7-9-7-9-7-9-7---7----|
|-------------9---------------9------|-------------9---------------9------|
|------------------------------------|------------------------------------|
|------------------------------------|------------------------------------|

|----12-12----12-12---12-12----12-12-|------------------10-10---11-11-|
|------------------------------------|---10-10--10-10-----------------|
|-10-------10------10-------10-------|----------------8-------9-------|
|------------------------------------|-8------8-----------------------|

|----12-12----12-12---12-12----12-12-|------------------10-10---11-11-|
|------------------------------------|---10-10--10-10-----------------|
|-10-------10------10-------10-------|----------------8-------9-------|
|------------------------------------|-8------8-----------------------|

|----12-12----12-12---12-12----12-12-|-----------9-9------------------|
|------------------------------------|---10-10----------12-12---10-10-|
|-10-------10------10-------10-------|---------7----------------------|
|------------------------------------|-8-------------10-------8-------|

|-------------------------|----------------------------|
|---9-9---9-9---9-9---9-9-|---7-7---9-9---10-10---7-7--|
|-------------------------|----------------------------|
|-7-----7-----7-----7-----|-5-----7-----8-------5------|

|----12-12----12-12---12-12----12-12-|------------------10-10---11-11-|
|------------------------------------|---10-10--10-10-----------------|
|-10-------10------10-------10-------|----------------8-------9-------|
|------------------------------------|-8------8-----------------------|

|----12-12----12-12---12-12----12-12-|-----------9-9------------------|
|------------------------------------|---10-10----------12-12---10-10-|
|-10-------10------10-------10-------|---------7----------------------|
|------------------------------------|-8-------------10-------8-------|

|-------------------------|------------------------------|
|---9-9---9-9---9-9---9-9-|---7-7---9-9---10-10----12-12-|
|-------------------------|------------------------------|
|-7-----7-----7-----7-----|-5-----7-----8-------10-------|

|-----9-7-9-7---7-9-7-9-7-9-7---7----|-----9-7-9-7---7-9-7-9-7-9-7---7----|
|-------------9---------------9------|-------------9---------------9------|
|------------------------------------|------------------------------------|
|------------------------------------|------------------------------------|

Repeat Chorus and Fade Out

	  

there isn't a video lesson for this song

request
Search
auto scroll beats size up size down change color hide chords drawings
tab show chords e-chords YouTube Clip e-chords hide all tabs e-chords go to top tab