Edguy

home > Edguy

Tears of a Mandrake Bass Tab

Edguy

Difficulty: AdvancedAdvanced

by eduardo%5Flyvio

tuner correct add songbook print version text version save to e-mail
chordsukulelecavacokeyboardtabbassdrumsharmonicsflute Guitar Pro
chords

Tears of a Mandrake

(Edguy)

  		Transcribed by: AndrČ Baida from BRAZIL! 
Email: [email protected] 
 
This is the "title track" of their new album....amazing mid tempo song!! 
Hope that you'll like it! 
 
Stay Savage! 
AndrČ 
 
Tune: Half Step Down 
 
Intro: 
 
Gb----------------------------------------------------------------------------- 
Db----------------------------------------------------------------------------- 
Ab-------------------------2-2-2-2-2-2-2-2-2-2-2-2-------------------2-3-3-3--- 
Eb-0-0-0-0-0-0-0-0-0-0-0-0-------------------------0-0-0-0-0-0-0-0-0----------- 
                                                                               
Gb-------------------||---------------------------------|--- 
Db-------------------||---------------------------------|--- 
Ab-3-3-3-2-2-2-5-5-5-||---------------------------------|--- 
Eb-------------------||-0-0-0-0-0-0-0--0-0-0--0-0-0-0-0-|--- 
                                                                               
Vocals: 
 
 
    |-> Listen to the song to know how many times you should play... 
    | 
Gb-----||-------------------------|--- 
Db-----||-------------------------|--- 
Ab-----||-3-3-3-3-3-2-5-5-5-5-5-5-|--- 
Eb--0--||-------------------------|--- 
                                                                               
Bridge: 
 
Gb-------------------------------------------------------------------------|-- 
Db---------------5---------------------------------------------------------|-- 
Ab-----------3/5---5------------------------------3-3-3-3-3-5-5-5-5-5------|-- 
Eb---3-3-3-3----------2-2-2-2-2-1-1-1-1-1-1-1-1-1----------------------3/8-|-- 
                                                                               
Chorus: 
 
Gb------------------------------------------------------------------------------ 
Db------------------------------------------------------------------------------ 
Ab------------6-6-6-6-6-6-------------1-1-1-0-0-0-------------6-6-6-6-6-6-3-3--- 
Eb--3-3-3-3-3-------------1-1-1-1-1-1-------------3-3-3-3-3-3------------------- 
                                                                               
Gb-------------------------|--- 
Db-------------------------|--- 
Ab-3-3-3-3-5-5-5-5-8-8-8-8-|--- 
Eb-------------------------|--- 
                                                                               
Gb------------------------------------------------------------------------------ 
Db------------------------------------------------------------------------------ 
Ab------------6-6-6-6-6-6-------------1-1-1-0-0-0-------------6-6-6-6-6-6-3-3--- 
Eb--3-3-3-3-3-------------1-1-1-1-1-1-------------3-3-3-3-3-3------------------- 
                                                                               
Gb-------------------------|------------------------------------|-- 
Db-------------------------|------------------------------------|-- 
Ab-3-3-3-3-5-5-5-5-5-5-5-5-|------------------------------------|-- 
Eb-------------------------|-0-0--0-0-0-0-0-0--0-0-0-0-0--0-0-0-|-- 
 
Repeat Vocals, Bridge, then: 
 
Chorus II (2x) 
 
Gb------------------------------------------------------------------------------ 
Db------------------------------------------------------------------------------ 
Ab------------6-6-6-6-6-6-------------1-1-1-0-0-0-------------6-6-6-6-6-6-3-3--- 
Eb--3-3-3-3-3-------------1-1-1-1-1-1-------------3-3-3-3-3-3------------------- 
                                                                               
Gb-------------------------||--- 
Db-------------------------||--- 
Ab-3-3-3-3-5-5-5-5-8-8-8-8-||--- 
Eb-------------------------||--- 
 
 
Pre Solo: 
 
Gb------|---|---|---|--------------|--- 
Db------|---|---|---|--------------|--- 
Ab-7-~~-|-7-|-5-|-3-|-2-2-2-2-22222|--- 
Eb------|---|---|---|--------------|--- 
 
Solo: 
 
Gb------------------------------------------------------------------------------ 
Db---------------------2-----------------------------------------------2-------- 
Ab----------------2--3---5-5-5-5-5-5-2-2-2-2--0------------------2--3----3-3-3-- 
Eb--0-0-0-0-0-0-0-------------------------------3--0-0-0-0-0-0-0---------------- 
                                                                               
Gb---------------------------||--- 
Db---------------------------||--- 
Ab-3-3-3-3-3-5-5-5-5-5-5-5-5-||--- 
Eb---------------------------||--- 
                                                                               
Interlude: 
 
"Tears of a mandrake - yeah..." 
 
Gb------------------------------------------------------------------------ 
Db------------------------------------------------------------------------ 
Ab-------------------------555555555-2222-00-------------------333333333-- 
Eb---0000000000000000000--------------------33--00000000000000------------ 
                                                                               
Gb----------|-- 
Db----------|-- 
Ab-5555555--|-- 
Eb----------|-- 
                                                                               
Solo II: 
 
Gb------------------------------------------------------------------------------ 
Db---------------------5-----------------------------------------------5-------- 
Ab----------------5--6---8-8-8-8-8-8-5-5-5-5--3------------------5--6----6-6-6-- 
Eb--3-3-3-3-3-3-3-------------------------------5--3-3-3-3-3-3-3---------------- 
                                                                               
Gb---------------------------||-- 
Db---------------------------||-- 
Ab-6-6-6-6-6-8-8-8-8-8-8-8-8-||-- 
Eb---------------------------||-- 
 
Repeat Chorus, and then: 
 
Gb------------------------------------|-- 
Db------------------------------------|-- 
Ab------------------------------------|-- 
Eb-3-3--3-3-3-3-3-3--3-3-3-3-3--3-3-3-|-- 
 
End. 
	  

Search Paypal
auto scroll beats size up size down change color hide chords drawings
tab show chords e-chords YouTube Clip e-chords hide all tabs e-chords go to top tab