Edguy

home > Edguy

Land of the miracle Bass Tab

Edguy

Difficulty: nolevelnolevel

by eduardo%5Flyvio

tuner correct add songbook print version text version save to e-mail
chordsukulelecavacokeyboardtabbassdrumsharmonicsflute Guitar Pro
chords

Land of the miracle

(Edguy)

  		Bass tab by Hern.n Reynoso. 
E-mail: [email protected] 
From Argentina. 
 
Intro                                                  Bass enter 
     "Blinded by the..."    "Your eyes are the gate" 
G: |------------------------------------------------|-----------------| 
D: |------------------------------------------------|-----------------| 
A: |------------------------------------------------|---0-1---5-3-0---| 
E: |------------------------------------------------|-----------------| 
 
Chorus 
       "To the land..."                "In the land..."  
G: |------------------------------------------------------------------| 
D: |------------------------------------------------------------------| 
A: |-----------55553333------33------33--------55553333------33-------| 
E: |---11116666--------666666--111111--11116666--------666666--1111---| 
 
Outro and verse 2 
                       "Open up the..."             "...tell you..." 
G: |-------------------------------------------------------------------| 
D: |-------------------------------------------------------------------| 
A: |---3------------------------------------------------3333----3333---|                   
E: |-----65311111111111111111111111111111111111-11111111----6666-------| 
 
      "And if the..." 
G: |---------------------------------------------|                                                                     
D: |---------------------------------------------| 
A: |-------33335555--------555533-333--------3---|                                                                      
E: |---1111--------55556666--------------6--6----| 
 
Bridge        
                    "...leaving all my sorrow far behind..."     
G: |--------------------------------------------------| 
D: |--------------------------------------------------| 
A: |-----------------------------------5------3-------|           
E: |---1111111111111111-1-------0-----------------6---| 
 
"Your eyes are the gate" 
G: |--------------------|-----------------| 
D: |--------------------|-----------------| 
A: |--------------------|---0-1---5-3-0---|           
E: |--------------------|-----------------| 
 
Chorus 
       "To the land..."                "In the land..."  
G: |--------------------------------------------------------------------| 
D: |--------------------------------------------------------------------| 
A: |-----------55553333------33------33--------55553333------33---------| 
E: |---11116666--------666666--111111--11116666--------666666--1111/13--| 
 
Solo 
G: |--------------------------------------------------------------------| 
D: |--------------------------------------------------------------------| 
A: |-------------------55555555------------------------5555555555h8h5---| 
E: |---1111111155555555--------555533331111111155555555-----------------| 
 
G: |----------------------------------------------------------------------------| 
D: |----------------------------------------------------------------------------| 
A: |----------------------------------------------------------------------------| 
E: |---55555555333333335555555544/5-7-5/7/5-666666665555555533333333111111116---| 
 
G: |-----------------| 
D: |-----------------| 
A: |---0-1---5-3-0---|           
E: |-----------------| 
 
Chorus 
       "Is the land..."                "In the land..."  
G: |----------------------------------------------------------------------| 
D: |----------------------------------------------------------------------| 
A: |-----------55553333------33------33--------55553333------33------33---| 
E: |---11116666--------666666--111111--11116666--------666666--111111-----| 
 
Repeat a lot of times. 
 
End. 
 
Note: the rythm is not difficult and the song is great. Please, mail me if you find  
any mistake. 
	  

Search Paypal
auto scroll beats size up size down change color hide chords drawings
tab show chords e-chords YouTube Clip e-chords hide all tabs e-chords go to top tab