Edguy

home > Edguy

All The Clowns Bass Tab

Edguy

Difficulty: nolevelnolevel

by eduardo%5Flyvio

tuner correct add songbook print version text version save to e-mail
chordsukulelecavacokeyboardtabbassdrumsharmonicsflute Guitar Pro
chords

All The Clowns

(Edguy)

  		Transcribed by: AndrČ Baida from BRAZIL!! 
Email: [email protected] 
 
Tune: Half Step Down 
Note: "*"s are used to represent the same note X times (listen to the song) 
 
 
Not sure about this riff: 
 
Gb--7----7-8-7-------|-- 
Db----10-------10--8-|-- 
Ab-------------------|-- 
Eb-------------------|-- 
                                                                               
 
Riff 1 
 
Gb-------------------||--------|-- 
Db-------------------||--------|-- 
Ab--5*--3*----1*--3*-||-5*--3*-|-- 
Eb---------3*--------||--------|-- 
                                                                               
Vocals  
 
Gb------------------|-- 
Db------------------|-- 
Ab--5*--1*------3*--|-- 
Eb----------3*------|-- 
                                                                               
Bridge 
 
Gb---------------------|----------------------|-- 
Db---------------------|----------------------|-- 
Ab--1*------5*--7*-----|--1*------------------|-- 
Eb------3*----------1*-|------3*--5*---3*--5*-|-- 
 
Chorus                                                                               
 
Gb-----------------------------|------------|--------------|----------|- 
Db---------------5h7*--5h7-5h7-|------------|--------------|----------|- 
Ab--5*-------------------------|-5*---------|--2*----5*----|----5*----|- 
Eb------3*--5*-----------------|-----3*--5*-|-----3*----5*-|-0*----5*-|- 
                                                                               
Gb--------------|-- 
Db--------------|-- 
Ab-----5*-3*-5*-|-- 
Eb--0*----------|-- 
                                                                               
Not sure about this too... 
 
Gb------------|-- 
Db------------|-- 
Ab--7*--10--8-|-- 
Eb------------|-- 
                                                                               
Repeat Vocals, Bridge and Chorus 
 
Solo 
 
Gb-----------------------------|-- 
Db-----------------------------|-- 
Ab--3*------7*--5*-------------|-- 
Eb------5*----------5*--1*--3*-|-- 
                                                                               
Guitar Lick 
 
Gb-----|-----|-----|-------|------------------|-- 
Db-----|-----|-----|-------|------------------|-- 
Ab--5--|--3--|-----|--1--3-|--5*--------------|-- 
Eb-----|-----|--3--|-------|------3*-5*--3--5-|-- 
                                                                               
Chorus 
 
Gb-----------------------------|------------|--------------|----------|- 
Db---------------5h7*--5h7-5h7-|------------|--------------|----------|- 
Ab--5*-------------------------|-5*---------|--2*----5*----|----5*----|- 
Eb------3*--5*-----------------|-----3*--5*-|-----3*----5*-|-0*----5*-|- 
                                                                               
Gb-----------------------------|------------|--------------|----------|- 
Db---------------5h7*--5h7-5h7-|------------|--------------|----------|- 
Ab--5*-------------------------|-5*---------|--2*----5*----|----5*----|- 
Eb------3*--5*-----------------|-----3*--5*-|-----3*----5*-|-0*----5*-|- 
                                                                               
Gb------------|-- 
Db------------|-- 
Ab-----5*-3*--|-- 
Eb--0*--------|-- 
 
 
Gb--------------|--------------|-----------------|-------------|-- 
Db--------------|--------------|-----------------|-------------|-- 
Ab------1*--3*--|------1*--3*--|--5*--1*------3*-|----------3*-|-- 
Eb--1*----------|--1*----------|----------1*-----|--3*--1*-----|-- 
                                                                               
Repeat until fade out.... 
End. 
	  

Search Paypal
auto scroll beats size up size down change color hide chords drawings
tab show chords e-chords YouTube Clip e-chords hide all tabs e-chords go to top tab