Eddie Money

I Wanna Go Back

Eddie Money

bass

by  ANG-LETRA

save to print version add songbook text version e-mail correct tuner
chordsukulelecavacokeyboardtabbassdrumsharmonicaflute Guitar Pro
close

there isn't a video lesson for this song

chords

I Wanna Go Back

	  		
Gtr I (E A D G) - 'Randy Jackson - Bass' 

 Intro 
 Q=112 
 4/4 
 Gtr I 
   Q.   E +Q.   E   +Q.   E Q  Q    Q.   E +Q.   E   +Q.   E E E E E 
G|----------------|---------------|----------------|-----------------| 
D|--------------1-|-(1)---1-3--3--|--------------1-|-(1)---0-1-0-----| 
A|------1-(1)-----|---------------|------1-(1)-----|-------------3-1-| 
E|-1--------------|---------------|-1--------------|-----------------| 


   Q.   E +Q.   E   +Q.   E Q  Q    Q.   E +Q.   E   +Q.   E E E E E 
G|----------------|---------------|----------------|------------------| 
D|--------------1-|-(1)---1-3--3--|--------------1-|-(1)---1-1-----1--| 
A|------1-(1)-----|---------------|------1-(1)-----|-----------1------| 
E|-1--------------|---------------|-1--------------|------------------| 


                 1st & 2nd Verses 
   +Q.   E H        Q.   E H      Q.   E Q.   E   Q.   E H 
G|--------------||--------------|---------------|-------------| 
D|-(1)---1-1----||o-------------|--------3----3-|-1----1-1----| 
A|--------------||o-------------|---------------|-------------| 
E|--------------||--3----3-3----|-3----3--------|-------------| 


   Q.   E H      Q.   E H      Q.   E Q.   E   Q.   E H 
G|-------------|-------------|---------------|-------------| 
D|-------------|-------------|--------3----3-|-1----1-1----| 
A|-------------|-------------|---------------|-------------| 
E|-1----1-1----|-3----3-3----|-3----3--------|-------------| 


   Q.   E H      Q.   E H      Q.   E H      Q.   E H 
G|-------------|-------------|-------------|-------------| 
D|-------------|-------------|-------------|-------------| 
A|-------------|-1----1-1----|-1----1-1----|-------------| 
E|-1----1-1----|-------------|-------------|-1----1-1----| 


   Q.   E H      Q.   E H      Q.   E H      Q.   E H 
G|-------------|-------------|-------------|-------------| 
D|-------------|-------------|-------------|-------------| 
A|-------------|-1----1-1----|-1----1-1----|-------------| 
E|-1----1-1----|-------------|-------------|-1----1-1----| 


   Q.   E Q  Q    Q.   E Q  Q    Q.   E Q  E E   Q.   E Q  Q 
G|--------------|--------------|-----------0---|---------------| 
D|--------------|--------------|-------------3-|-1----1-1------| 
A|--------------|--------5-----|---------------|-----------1---| 
E|-1----1-1--2--|-3----3----3--|-1----1-1------|---------------| 


                 Chorus 
   Q.   E Q  Q     Q.   E +Q.   E   +Q.   E Q  Q    Q.   E +Q.   E 
G|--------------||----------------|---------------|-----------------| 
D|-1----1-1--1--||--------------1-|-(1)---1-3--3--|--------------1--| 
A|--------------||------1-(1)-----|---------------|------1-(1)------| 
E|--------------||-1--------------|---------------|-1---------------| 


                                                    1. 
  +Q.   E E E E E   Q.   E +Q.   E   +Q.   E Q  Q    Q.   E +Q.   E 
G|-----------------|----------------|---------------|-----------------| 
D|-(1)---0-1-0-----|--------------1-|-(1)---1-3--3--|--------------1--| 
A|-------------3-1-|------1-(1)-----|---------------|------1-(1)------| 
E|-----------------|-1--------------|---------------|-1---------------| 


   +Q.   E E E E E   +Q.   E H 
G|-----------------|---------------|| 
D|-(1)---1-1-----1-|-(1)---1-1----o|| 
A|-----------1-----|--------------o|| 
E|-----------------|---------------|| 


 2. 
   Q.   E +Q.   E   +Q.   E E E E E   +W 
G|----------------|-----------------|--------|| 
D|--------------1-|-(1)---1-1-----1-|-(1)----|| 
A|------1-(1)-----|-----------1-----|--------|| 
E|-1--------------|-----------------|--------|| 


 Chorus 
   Q.   E +Q.   E   +Q.   E Q  Q    Q.   E +Q.   E   +Q.   E E E E E 
G|----------------|---------------|----------------|------------------| 
D|--------------1-|-(1)---1-3--3--|--------------1-|-(1)---0-1-0------| 
A|------1-(1)-----|---------------|------1-(1)-----|-------------3-1--| 
E|-1--------------|---------------|-1--------------|------------------| 


   Q.   E +Q.   E   +Q.   E Q  Q    Q.   E +Q.   E   +Q.   E E E E E 
G|----------------|---------------|----------------|------------------| 
D|--------------1-|-(1)---1-3--3--|--------------1-|-(1)---0-1-0------| 
A|------1-(1)-----|---------------|------1-(1)-----|-------------3-1--| 
E|-1--------------|---------------|-1--------------|------------------| 


   Q.   E Q  Q    Q.   E Q  E E   Q.   E Q  Q    Q.   E Q  Q 
G|--------------|---------------|--------------|---------------| 
D|--------------|---------------|-1----1-1-----|-1----1-1--1---| 
A|--------5-----|---------------|-----------1--|---------------| 
E|-3----3----3--|-1----1-1--3-1-|--------------|---------------| 


  Outro 
     Q.   E +Q.   E   +Q.   E Q  Q    Q.   E +Q.   E   +Q.   E E E E E 
G||-----------------|---------------|----------------|-----------------| 
D||o--------------1-|-(1)---1-3--3--|--------------1-|-(1)---0-1-0-----| 
A||o------1-(1)-----|---------------|------1-(1)-----|-------------3-1-| 
E||--1--------------|---------------|-1--------------|-----------------| 


   Q.   E +Q.   E   +Q.   E Q  Q    Q.   E +Q.   E   +Q.   E Q  Q    3x 
G|----------------|---------------|----------------|-----------------|| 
D|--------------1-|-(1)---1-3--3--|--------------1-|-(1)---0-1--1---o|| 
A|------1-(1)-----|---------------|------1-(1)-----|----------------o|| 
E|-1--------------|---------------|-1--------------|-----------------|| 

************************************ 
Duration Legend 

W - whole; H - half; Q - quarter; E - 8th; S - 16th; a - acciaccatura;  
+ - note tied to previous; . - note dotted; 
Duration letters will always appear directly above the note/fret number it represents the 
duration for.  Duration letters with no fret number below them represent rests. 
Uncapitalized letters represent notes that are staccato (1/2 duration).  

|  (n)   -  note tied to previous 
************************************** 
		  

Full key step upFull key step up
Half key step upHalf key step up
Half key step downHalf key step down
Full key step downFull key step down
hide glossary

See also:

bass Prime Colour - Under A Burning Sky bass Eddie Money - I Wanna Go Back
e-chords

Other versions:

bass Eddie Money - I Wanna Go Back
auto scroll beats size up size down change color hide chords drawings
tab show chords e-chords YouTube Clip e-chords hide all tabs e-chords go to top tab

share