Duran Duran

home > Duran Duran

A Matter of Feeling Bass Tab

Duran Duran

Difficulty: nolevelnolevel

by victborges

tuner correct add songbook print version text version save to e-mail
chordsukulelecavacokeyboardtabbassdrumsharmonicsflute Guitar Pro
chords

A Matter of Feeling

Year: 1986 - Album: Notorious

  		
Intro 
G|----------------|----------------|----------------|----------------| 
D|----------------|------------7>-7|----------------|----------------| 
A|5>-5>--55>-57>--|9>-9>--99>-9----|5>-5>--55>-57>--|9>-9>--9------4-| 
E|----------------|----------------|----------------|--------7>-77---| 
   1 & 2 & 3 & 4 &  1 & 2 & 3 & 4 &  1 & 2 & 3 & 4 &  1 & 2 & 3 & 4 & 

Verse 
G|----------------|----------------|----------------|----------------| 
D|----------------|------------7>-7|----------------|----------------| 
A|5>-5>--55>-57>--|9>-9>--99>-9----|5>-5>--55>-57>--|9>-9>--9------4-| 
E|----------------|----------------|----------------|--------7>-77---| 
   1 & 2 & 3 & 4 &  1 & 2 & 3 & 4 &  1 & 2 & 3 & 4 &  1 & 2 & 3 & 4 & 

G|----------------|----------------|----------------|----------------| 
D|----------------|----------------|----------------|------------7>-7| 
A|5>-5>--57>------|----------------|5>-5>--55>-57>--|9>-9>--99>-9----| 
E|-----------00>1>|2>-2>--22>-25>-5|----------------|----------------| 
   1 & 2 & 3 & 4 &  1 & 2 & 3 & 4 &  1 & 2 & 3 & 4 &  1 & 2 & 3 & 4 & 

G|----------------|----------------|----------------|----------------| 
D|----------------|----------------|----------------|----------------| 
A|5>-5>--55>-57>--|9>-9>--9------4-|5>-5>--57>------|----------------| 
E|----------------|--------7>-77---|-----------00>1>|2>-2>--22>-22>2>| 
   1 & 2 & 3 & 4 &  1 & 2 & 3 & 4 &  1 & 2 & 3 & 4 &  1 & 2 & 3 & 4 & 

Chorus 
G|----------------|----------------|-------02>-2>---|----------------| 
D|-----------7>---|0>-0>--02>-2>-35|3>-3>-3---------|--------2>-2>-2>| 
A|--------------34|----------------|--------------34|5>-5>-\3--------| 
E|1>-1>-135>------|----------------|----------------|----------------| 
   1 & 2 & 3 & 4 &  1 & 2 & 3 & 4 &  1 & 2 & 3 & 4 &  1 & 2 & 3 & 4 & 

G|-------02>-2>---|----------------|-------02>-2>---|----------------| 
D|3>-3>-3---------|0>-0>-012>-2>-2>|3>-3>-3---------|----------------| 
A|--------------34|----------------|--------------34|5>-5>-507>-7>-7>| 
E|----------------|----------------|----------------|----------------| 
   1 & 2 & 3 & 4 &  1 & 2 & 3 & 4 &  1 & 2 & 3 & 4 &  1 & 2 & 3 & 4 & 

Fill (Intro repeated) 
G|----------------|----------------|----------------|----------------| 
D|----------------|------------7>-7|----------------|----------------| 
A|5>-5>--55>-57>--|9>-9>--99>-9----|5>-5>--55>-57>--|9>-9>--9------4-| 
E|----------------|----------------|----------------|--------7>-77---| 
   1 & 2 & 3 & 4 &  1 & 2 & 3 & 4 &  1 & 2 & 3 & 4 &  1 & 2 & 3 & 4 & 

Verse Reprise 
G|----------------|----------------|----------------|----------------| 
D|----------------|------------7>-7|----------------|----------------| 
A|5>-5>--55>-57>--|9>-9>--99>-9----|5>-5>--55>-57>--|9>-9>--9------4-| 
E|----------------|----------------|----------------|--------7>-77---| 
   1 & 2 & 3 & 4 &  1 & 2 & 3 & 4 &  1 & 2 & 3 & 4 &  1 & 2 & 3 & 4 & 

G|----------------|----------------|----------------|----------------| 
D|--------2>-22>2>|----------------|----------------|------------7>-7| 
A|5>-5>--5--------|------------0>-0|5>-5>--55>-57>--|9>-9>--99>-9----| 
E|----------------|2>-2>--22>-2----|----------------|----------------| 
   1 & 2 & 3 & 4 &  1 & 2 & 3 & 4 &  1 & 2 & 3 & 4 &  1 & 2 & 3 & 4 & 

G|----------------|----------------|----------------|----------------| 
D|----------------|----------------|----------------|44>4>--44>-44>4>| 
A|5>-5>--55>-57>--|9>-9>--9------4-|5>-5>--57>-77>8>|----------------| 
E|----------------|--------7>-77---|----------------|----------------| 
   1 & 2 & 3 & 4 &  1 & 2 & 3 & 4 &  1 & 2 & 3 & 4 &  1 & 2 & 3 & 4 & 

Chorus Reprise 
G|----------------|----------------|-------02>-2>---|----------------| 
D|-----------7>---|0>-0>--02>-2>-22|3>-3>-3---------|0>-0>--02>-2>-2>| 
A|--------------34|----------------|--------------34|----------------| 
E|11-1>-135>------|----------------|----------------|----------------| 
   1 & 2 & 3 & 4 &  1 & 2 & 3 & 4 &  1 & 2 & 3 & 4 &  1 & 2 & 3 & 4 & 

G|-------02>-2>---|----------------|-------02>-2>---|----------------| 
D|3>-3>-3---------|----------------|3>-3>-3---------|----------------| 
A|--------------34|5>-5>-567>-7>-7>|--------------34|5>-5>-557>-7>-7>| 
E|----------------|----------------|----------------|----------------| 
   1 & 2 & 3 & 4 &  1 & 2 & 3 & 4 &  1 & 2 & 3 & 4 &  1 & 2 & 3 & 4 & 

Interlude (A minor) 
G|----------------|----------------|----------------|----------------| 
D|----------------|----------------|----------------|----------------| 
A|------3--320>3--|5>-5553-55>5553-|------3--320>3--|5>-5553-55>5553-| 
E|5>-5>5-35-----5>|----------------|55>5>5-35-----5>|----------------| 
   1 & 2 & 3 & 4 &  1 & 2 & 3 & 4 &  1 & 2 & 3 & 4 &  1 & 2 & 3 & 4 & 

G|----------------|----------------| 
D|----------------|----------------| 
A|------3--320>3--|5>-5553-55>5553-| 
E|5>-5>5-35-----5>|----------------| 
   1 & 2 & 3 & 4 &  1 & 2 & 3 & 4 & 

Chorus Reprise II 
G|----------------|----------------|----------------|----------------| 
D|3>-3>-357>-7>---|----------------|----------------|----------------| 
A|--------------34|5>-5>-557>-7>-7>|--------------34|5>-5>-557>-7>---| 
E|----------------|----------------|11-1>-135>-5>---|----------------| 
   1 & 2 & 3 & 4 &  1 & 2 & 3 & 4 &  1 & 2 & 3 & 4 &  1 & 2 & 3 & 4 & 

G|----------------|----------------|----------------|----------------| 
D|-----------7>---|----------------|-----------7>---|----------------| 
A|--------------34|5>-5>-557>-7>77-|--------------34|5>-5>-557>-7>-7>| 
E|11-1>-135>------|----------------|11-1>-135>------|----------------| 
   1 & 2 & 3 & 4 &  1 & 2 & 3 & 4 &  1 & 2 & 3 & 4 &  1 & 2 & 3 & 4 & 

Outro 
G|----------------|----------------|----------------|----------------| 
D|----------------|------------7>-7|----------------|----------------| 
A|5>-5>--55>-57>--|9>-9>-9999-9----|55-5>-5555-57>--|9>-9>--9------4-| 
E|----------------|----------------|----------------|--------7>-77---| 
   1 & 2 & 3 & 4 &  1 & 2 & 3 & 4 &  1 & 2 & 3 & 4 &  1 & 2 & 3 & 4 & 

G|----------------|----------------|----------------|----------------| 
D|----------------|------------7>-7|----------------|------------7>-7| 
A|5>-5>--57>-77>8-|99-9>-9-9>-9----|5>-5>--55>-57>7>|99-9>-9-99-9----| 
E|----------------|----------------|----------------|----------------| 
   1 & 2 & 3 & 4 &  1 & 2 & 3 & 4 &  1 & 2 & 3 & 4 &  1 & 2 & 3 & 4 & 

G|----------------|----------------|----------------|----------------| 
D|----------------|----------------|----------------|----------------| 
A|5>-5>--55>-57>77|9>-9>--9------4-|5>-5>--57>-77>8>|99-9-9-9------4-| 
E|----------------|--------7>-777--|----------------|--------7>-77---| 
   1 & 2 & 3 & 4 &  1 & 2 & 3 & 4 &  1 & 2 & 3 & 4 &  1 & 2 & 3 & 4 & 

G|----------------|----------------| 
D|----------------|----------------| 
A|5>-5>--57>-77>8>|99-9>-----------| 
E|----------------|----------------| 
   1 & 2 & 3 & 4 &  1 & 2 & 3 & 4 & 



************************************ 

| \  Slide down 

************************************ 
	  

Full key step upFull key step up
Half key step upHalf key step up
Half key step downHalf key step down
Full key step downFull key step down
Search Paypal
auto scroll beats size up size down change color hide chords drawings
tab show chords e-chords YouTube Clip e-chords hide all tabs e-chords go to top tab