Dua Lipa

Break My Heart

Dua Lipa

bass

by  JPABASS

save to print version add songbook text version e-mail correct tuner
chordsukulelecavacokeyboardtabbassdrumsharmonicaflute Guitar Pro
close

there isn't a video lesson for this song

chords

Break My Heart

	  		Dua Lipa - Break My Heart 



{Intro} Em  C7M  Bm (3x) 
    
G|---------|-----------------|-----------------|------------------| 
D|---------|-4p5-4---2-------|-----------------|------------------| 
A|-7-7-7--7|-----------------|--3-3-3-0p3-5-7--|------------------| 
E|---------|-----------------|-----------------|------------------| 
  

Pré Refrão: C D Bm Em D 

G|---------|-----------------|-----------------|------------------| 
D|---------|-----------------|-----------------|------------------| 
A|-3---5---|--------7--5-----|--3---5----------|------------------| 
E|---------|---7-------------|-----------------|---7------7-------| 

Refrão:  Em  C7M  Bm  (6x) 

G|---------|-----------------|-----------------|------------------| 
D|---------|-4p5-4---2-------|-----------------|------------------| 
A|-7-7-7--7|-----------------|--3-3-3-0p3-5-7--|------------------| 
E|---------|-----------------|-----------------|------------------| 
		  

Full key step upFull key step up
Half key step upHalf key step up
Half key step downHalf key step down
Full key step downFull key step down
hide glossary

See also:

bass Deep Purple - Burn (ver. 2) bass Deep Purple - Smoke On The Water (ver. 3) bass Deep Purple - Strange kind of woman bass Deep Purple - Into The Fire bass Deep Purple - Burn Ver.(2) bass Deep Purple - Smoke On The Water
e-chords

Other versions:

bass Dua Lipa - Break My Heart
auto scroll beats size up size down change color hide chords drawings
tab show chords e-chords YouTube Clip e-chords hide all tabs e-chords go to top tab

share