Dream Theater

Burning My Soul

Dream Theater

bass

by  DUDA MARX

save to print version add songbook text version e-mail correct tuner
chordsukulelecavacokeyboardtabbassdrumsharmonicaflute Guitar Pro
close

there isn't a video lesson for this song

chords

Burning My Soul

	  		Transcricao: Anderson Cerqueira 
 
Baixo I (B E A D G C) 
 
|----------||------------------|------------------|| 
|----------||o-----------------|-----------------o|| 
|----------||------------------|------------------|| 
|----------||------------------|------------------|| 
|----------||o-------6-------3-|-------5---------o|| 
|----------||--5-3-5---5-3-5---|-5-3-5---5-3-5-6--|| 
 
 
 
||---------------------------||---------------------------| 
||o-------------------------o||---------------------------| 
||---------------------------||---------------------------| 
||---------------------------||---------------------------| 
||o-0-0-0-0-0-0-0-0-0-0-0-0-o||-0-0-0-0-0-0-0-0-0-0-0-0-0-| 
||---------------------------||---------------------------| 
 
||---------------------------||---------------------------------| 
||o-------------------------o||---------------------------------| 
||---------------------------||---------------------------------| 
||---------------------------||-1-1-1-1-1-1-1-1-----------------| 
||o-0-0-0-0-0-0-0-0-0-0-0-0-o||-----------------2-2-2-2-2-2-2-2-| 
||---------------------------||---------------------------------| 
 
 
 
||---------------------------||---------------------------| 
||o-------------------------o||---------------------------| 
||---------------------------||---------------------------| 
||---------------------------||---------------------------| 
||o-0-0-0-0-0-0-0-0-0-0-0-0-o||-0-0-0-0-0-0-0-0-0-0-0-0-0-| 
||---------------------------||---------------------------| 
 
 
|-------------------------|-------------------------| 
|-------------------------|-------------------------| 
|-------------------------|-------------------------| 
|-5-5-5-5-5-5-5-5-5-5-5-5-|-------------------------| 
|-------------------------|-8-8-8-8-8-8-8-8-8-8-8-8-| 
|-------------------------|-------------------------| 
 
 
|-------------------------|---------------------------------| 
|-----------------9-9-9---|---------------------------------| 
|---------------8-------8-|---------------------------------| 
|-------------9-----------|-7-7-7-7-7-7-7-7-7-7-7-7-7-7-7-7-| 
|-6-6-6-6-----------------|---------------------------------| 
|---------7-7-------------|---------------------------------| 
 
 
|---------------------------------|---------------------------------| 
|---------------------------------|---------------------------------| 
|---------------------------------|---------------------------------| 
|-5-5-5-5-5-5-5-5-5-5-5-5-5-5-5-5-|-4-4-4-4-4-4-4-4-4-4-4-4-4-4-4-4-| 
|---------------------------------|---------------------------------| 
|---------------------------------|---------------------------------| 
 
 
 
|---------------------------------|---------------------------------| 
|---------------------------------|---------------------------------| 
|---------------------------------|---------------------------------| 
|-3-3-3-3-3-3-3-3---2-------------|---------------------------------| 
|-----------------5---3-5---3-----|-0-0-0-0-0-0-0-0-0-0-0-0-0-0-0-0-| 
|-------------------------5---3-5-|---------------------------------| 
 
 
 
|---------------------------------|---------------------------------| 
|---------------------------------|---------------------------------| 
|---------------------------------|---------------------------------| 
|---------------------------------|---------------------------------| 
|-3-3-3-3-3-3-3-3-3-3-3-3-3-3-3-3-|-5-5-5-5-5-5-5-5-5-5-5-5-5-5-5-5-| 
|---------------------------------|---------------------------------| 
 
 
 
|---------------------------------||------------------|-------------------|| 
|---------------------------------||o-----------------|------------------o|| 
|---------------------------------||------------------|-------------------|| 
|-3-3-3-3-3-3-3-3---2-------------||------------------|-------------------|| 
|-----------------5---3-5---3-----||o-------6-------3-|-------5----------o|| 
|-------------------------5---3-5-||--5-3-5---5-3-5---|-5-3-5---5-3-5-6---|| 
 
 
 
||---------------------------||-||------------------|------------------|| 
||o-------------------------o||-||o-----------------|-----------------o|| 
||---------------------------||-||------------------|------------------|| 
||---------------------------||-||------------------|------------------|| 
||o-0-0-0-0-0-0-0-0-0-0-0-0-o||-||o-------6-------3-|-------5---------o|| 
||---------------------------||-||--5-3-5---5-3-5---|-5-3-5---5-3-5-6--|| 
 
 
|---------------------------------||------------------|-------------------|| 
|---------------------------------||o-----------------|------------------o|| 
|---------------------------------||------------------|-------------------|| 
|---------------------------------||------------------|-------------------|| 
|-0-0-0-0---0---0-0-0-0---0-0-0---||o-------6-------3-|-------5----------o|| 
|---------------------------------||--5-3-5---5-3-5---|-5-3-5---5-3-5-6---|| 
 
 
|-----------------|-----------------------||--------------------------| 
|-----------------|-----------------------||o-------------------------| 
|-----------------|-----------------------||--------------------------| 
|-----------------|-----------------------||--------------------------| 
|-------6-------3-|-(3)-----5-(5)---------||o-0-0-0-0---0---0-0-0-0---| 
|-5-3-5---5-3-5---|-----5-3-------3-3-5-6-||--------------------------| 
 
 
 
|-----------------------------|-------------------------| 
|-----------------------------|-------------------------| 
|-----------------------------|-------------------------| 
|-----------------------------|-------------------------| 
|-3-3-3-3---3---3-3-3-3---3-3-|-5-5-5-5---5---5-5-5-5---| 
|-----------------------------|-------------------------| 
 
 
 
|------------------------------------||-------------------------| 
|-----------------------------------o||-------------------------| 
|------------------------------------||-------------------------| 
|------------------------------------||-------------------------| 
|-8-8-8-8---8---8-7-7-7---5-7-5-----o||-0-0-0-0---0---0-0-0-0---| 
|-------------------------------8-5--||-------------------------| 
 
 
|-----------------------------||--------------------------| 
|-----------------------------||o-------------------------| 
|-----------------------------||--------------------------| 
|-----------------------------||--------------------------| 
|-0-0-0-0---0---0-0-0-0---0-0-||o-0-0-0-0---0---0-0-0-0---| 
|-----------------------------||--------------------------| 
 
 
 
|----------------------------------||--------------------------| 
|---------------------------------o||--------------------------| 
|----------------------------------||--------------------------| 
|----------------------------------||--------------------------| 
|-0-0-0-0---0---0-0-0-0---0-0-0---o||-0-0-0-0---0---0-0-0-0----| 
|----------------------------------||--------------------------| 
 
 
 4/4                               3/4 
  S S S S S S S S S S S S S S S S   S S S S S S S S S S S S 
|---------------------------------|--------------------------| 
|---------------------------------|--------------------------| 
|---------------------------------|--------------------------| 
|-1-1-1-1---1---1-----------------|---------------------7-7--| 
|-----------------2-2-2---2-2-2---|-0-0-0-0---0---0-0-0------| 
|---------------------------------|--------------------------| 
 
 
 
|---------------------------------|--------------------------| 
|---------------------------------|--------------------------| 
|---------------------------------|--------------------------| 
|---------------------5-5-----5-7-|---------------------4-4--| 
|-0-0-0-0---0---0-0-0-----0-0-----|-0-0-0-0---0---0-0-0------| 
|---------------------------------|--------------------------| 
 
|---------------------------------|--------------------------| 
|---------------------------------|--------------------------| 
|---------------------------------|--------------------------| 
|---------------------7-7-----5-7-|---------------------7-7--| 
|-0-0-0-0---0---0-0-0-----0-0-----|-0-0-0-0---0---0-0-0------| 
|---------------------------------|--------------------------| 
 
 
|---------------------------------|--------------------------| 
|---------------------------------|--------------------------| 
|---------------------------------|--------------------------| 
|-5-5-5-5---5---5-----5-5-----5-7-|--------------------------| 
|-----------------0-0-----0-0-----|-8-8-8-8---8---8-8-8-8----| 
|---------------------------------|--------------------------| 
 
 
 
|--------------------------------------|----------------------------------| 
|---------------------9-9-9------------|----------------------------------| 
|-------------------8-------8----------|----------------------------------| 
|-----------------9--------------------|-7-7-7-7-7-7-7-7-7-7-7-7-7-7-7-7--| 
|-6-6-6-6---6---6-------------10-9-8-7-|----------------------------------| 
|--------------------------------------|----------------------------------| 
 
 
|---------------------------------|---------------------------------| 
|---------------------------------|---------------------------------| 
|---------------------------------|---------------------------------| 
|-5-5-5-5-5-5-5-5-5-5-5-5-5-5-5-5-|-4-4-4-4-4-4-4-4-4-4-4-4-4-4-4-4-| 
|---------------------------------|---------------------------------| 
|---------------------------------|---------------------------------| 
 
 
 
|---------------------------------|---------------------------------| 
|---------------------------------|---------------------------------| 
|---------------------------------|---------------------------------| 
|-3-3-3-3-3-3-3-3---2-------------|---------------------------------| 
|-----------------5---3-5---3-----|-0-0-0-0-0-0-0-0-0-0-0-0-0-0-0-0-| 
|-------------------------5---3-5-|---------------------------------| 
 
 
 
|---------------------------------|---------------------------------| 
|---------------------------------|---------------------------------| 
|---------------------------------|---------------------------------| 
|---------------------------------|---------------------------------| 
|-3-3-3-3-3-3-3-3-3-3-3-3-3-3-3-3-|-5-5-5-5-5-5-5-5-5-5-5-5-5-5-5-5-| 
|---------------------------------|---------------------------------| 
 
 
 
|---------------------------------||------------------|-------------------|| 
|---------------------------------||o-----------------|------------------o|| 
|---------------------------------||------------------|-------------------|| 
|-3-3-3-3-3-3-3-3---2-------------||------------------|-------------------|| 
|-----------------5---3-5---3-----||o-------6-------3-|-------5----------o|| 
|-------------------------5---3-5-||--5-3-5---5-3-5---|-5-3-5---5-3-5-6---|| 
 
 
 
|------*| 
|------*| 
|------*| 
|------*| 
|------*| 
|-5----*| 
 

		  

Full key step upFull key step up
Half key step upHalf key step up
Half key step downHalf key step down
Full key step downFull key step down
hide glossary

See also:

bass Dream Theater - Eretomania bass Slipknot - People =Shit bass Alice Cooper - Schools Out For Summer bass Dream Theater - Overture 1928 (ver. 2) bass Seether - Pig bass Dream Theater - This Dying Soul
e-chords

Other versions:

bass Dream Theater - Burning My Soul
auto scroll beats size up size down change color hide chords drawings
tab show chords e-chords YouTube Clip e-chords hide all tabs e-chords go to top tab

share