Donna Loren

Dream World

Donna Loren

bass

by  LINEKERS

save to print version add songbook text version e-mail correct tuner
chordsukulelecavacokeyboardtabbassdrumsharmonicaflute Guitar Pro
close

there isn't a video lesson for this song

chords

Dream World

	  		
0:26 

G|--------| 
D|--------| 
A|----4---| 
E|5-------| 

G|----------------------------------------------------------------| 
D|----------------------------------------------------------------| 
A|5-----------5---------------4---5-----------5-----------5---4---| 
E|------------------------5---------------------------------------| 

G|----------------------------------------------------------------| 
D|----------------------------------------------------------------| 
A|2-----------2-------------------2-----------2-----------2-------| 
E|------------------------2---5-------------------------------5---| 

G|----------------------------------------------------------------| 
D|----------------------------------------------------------------| 
A|------------------------2---------------------------------------| 
E|3-----------3---------------5---3-----------3-----------3---4---| 

G|----------------------------------------------------------------| 
D|----------------------------------------------------------------| 
A|----------------------------------------------------------------| 
E|5-----------5-----------0---3---5-------------------------------| 

0:43 

G|----------------------------------------------------------------| 
D|----------------------------------------------------------------| 
A|2-----------2-----------5---4---2-----------2-----------2---4---| 
E|----------------------------------------------------------------| 

G|----------------------------------------------------------------| 
D|----------------------------------------------------------------| 
A|5-----------5---------------4---5-----------5-----------5---4---| 
E|------------------------5---------------------------------------| 

G|----------------------------------------------------------------| 
D|----------------------------------------------------------------| 
A|2-----------2-------------------2-----------2-----------2-------| 
E|------------------------2---5-------------------------------5---| 

G|----------------------------------------------------------------| 
D|----------------------------------------------------------------| 
A|------------------------2---------------------------------------| 
E|3-----------3---------------5---3-----------3-----------3---4---| 

G|----------------------------------------------------------------| 
D|----------------------------------------------------------------| 
A|--------------------------------------------------------2---4---| 
E|5-----------5-----------0---3---5-----------5-------------------| 

1:04 

G|----------------------------------------------------------------| 
D|----------------------------------------------------------------| 
A|5-----------5---------------4---5-----------5-----------5---4---| 
E|------------------------5---------------------------------------| 

G|----------------------------------------------------------------| 
D|----------------------------------------------------------------| 
A|2-----------2-----------5---4---2-----------2-----------2-------| 
E|------------------------------------------------------------5---| 

G|----------------------------------------------------------------| 
D|----------------------------------------------------------------| 
A|------------------------2---------------------------------------| 
E|3-----------3---------------5---3-----------3-----------3---4---| 

G|----------------------------------------------------------------| 
D|----------------------------------------------------------------| 
A|----------------------------------------------------------------| 
E|5-----------5-----------0---3---5-------------------------------| 

1:21 

G|----------------------------------------------------------------| 
D|----------------------------------------------------------------| 
A|2-----------2-----------2-------2-----------2-----------2-------| 
E|----------------------------5-------------------------------5---| 

G|----------------------------------------------------------------| 
D|----------------------------------------------------------------| 
A|------------------------2-------------------------------2---4---| 
E|3-----------3---------------5---3-----------3-------------------| 

G|----------------------------------------------------------------| 
D|----------------------------------------------------------------| 
A|5-----------5---------------4---5-----------5-----------5---4---| 
E|------------------------5---------------------------------------| 

G|----------------------------------------------------------------| 
D|----------------------------------------------------------------| 
A|2-----------2-------------------2-----------2-----------5---5---| 
E|------------------------2---5-----------------------------------| 

G|----------------------------------------------------------------| 
D|------------------------------------------------------------6---| 
A|7-----------7---------------6---7-----------7-----------7-------| 
E|------------------------7---------------------------------------| 

G|----------------------------------------------------------------| 
D|7---------------------------------------------------------------| 
A|------------------------------------------------------------4---| 
E|--------------------------------------------------------5-------| 

1:46 

G|----------------------------------------------------------------| 
D|----------------------------------------------------------------| 
A|5-----------5---------------4---5-----------5-----------5---4---| 
E|------------------------5---------------------------------------| 

G|----------------------------------------------------------------| 
D|----------------------------------------------------------------| 
A|2-----------2-------------------2-----------2-----------2-------| 
E|------------------------2---5-------------------------------5---| 

G|----------------------------------------------------------------| 
D|----------------------------------------------------------------| 
A|------------------------2---------------------------------------| 
E|3-----------3---------------5---3-----------3-----------3---4---| 

G|----------------------------------------------------------------| 
D|----------------------------------------------------------------| 
A|--------------------------------------------------------2---4---| 
E|5-----------5-----------0---3---5-----------5-------------------| 

2:02 

G|----------------------------------------------------------------| 
D|----------------------------------------------------------------| 
A|5-----------5---------------4---5-----------5-----------5---4---| 
E|------------------------5---------------------------------------| 

G|----------------------------------------------------------------| 
D|----------------------------------------------------------------| 
A|2-----------2-----------5---4---2-----------2-----------2-------| 
E|------------------------------------------------------------5---| 

G|----------------------------------------------------------------| 
D|----------------------------------------------------------------| 
A|------------------------2---------------------------------------| 
E|3-----------3---------------5---3-----------3-----------3---4---| 

G|----------------------------------------------------------------| 
D|----------------------------------------------------------------| 
A|----------------------------------------------------------------| 
E|5-----------5-----------0---3---5-------------------------------| 

2:19 Until fadeout. 

G|----------------------------------------------------------------| 
D|----------------------------------------------------------------| 
A|5-----------5-------4---5---4---2-----------2-----------2---4---| 
E|----------------------------------------------------------------| 
		  

See also:

bass Deep Purple - Burn (ver. 2) bass Deep Purple - Burn Ver.(2) bass Deep Purple - Highway Star bass Deep Purple - Ted The Mechanic bass Deep Purple - Fire Ball bass Deep Purple - Into The Fire
e-chords

Other versions:

bass Donna Loren - Dream World
auto scroll beats size up size down change color hide chords drawings
tab show chords e-chords YouTube Clip e-chords hide all tabs e-chords go to top tab

share