Dolores O'Riordan

October

Dolores O'Riordan

bass

by  JESSGOMES

save to print version add songbook text version e-mail correct tuner
chordsukulelecavacokeyboardtabbassdrumsharmonicaflute Guitar Pro
close

there isn't a video lesson for this song

chords

October

	  		Very simple song and bass line: 

Intro 

G|-----------------------------------------------------------------| 
D|-----------------------------------------------------------------| 
A|-6-6-6-6-6-6-6-6-------------------------------------------------| 
E|-----------------7-7-7-7-7-7-7-7-9-9-9-9-9-9-9-9-6-6-6-6-6-6-6-6-|  x2 


verse 1 

G|-----------------------------------------------------------------| 
D|-----------------------------------------------------------------| 
A|-6-6-6-6-6-6-6-6-------------------------------------------------| 
E|-----------------7-7-7-7-7-7-7-7-9-9-9-9-9-9-9-9-6-6-6-6-6-6-6-6-|  x4 


Chorus 

G|-----------------------------------------------------------------| 
D|-----------------------------------------------------------------| 
A|-6-6-6-6-6-6-6-6-------------------------------------------------| 
E|-----------------7-7-7-7-7-7-7-7-4-4-4-4-4-4-4-4-6-6-6-6-6-6-6-6-|  x4 


verse 2 

G|-----------------------------------------------------------------| 
D|-----------------------------------------------------------------| 
A|-6-6-6-6-6-6-6-6-------------------------------------------------| 
E|-----------------7-7-7-7-7-7-7-7-9-9-9-9-9-9-9-9-6-6-6-6-6-6-6-6-|  x4 


Chorus 

G|-----------------------------------------------------------------| 
D|-----------------------------------------------------------------| 
A|-6-6-6-6-6-6-6-6-------------------------------------------------| 
E|-----------------7-7-7-7-7-7-7-7-4-4-4-4-4-4-4-4-6-6-6-6-6-6-6-6-|  x4 


Outro  

G|-----------------------------------------------------------------| 
D|-----------------------------------------------------------------| 
A|-6-6-6-6-6-6-6-6-------------------------------------------------| 
E|-----------------7-7-7-7-7-7-7-7-4-4-4-4-4-4-4-4-6-6-6-6-6-6-6-6-| until the end. 
		  

See also:

bass Billy Joel - Angry Young Man bass Steve Miller Band - Living In The Usa bass Jimi Hendrix - Purple Haze bass Journey - Don't Stop Believin' bass Creedence Clearwater Revival - Born On A Bayou bass Jimi Hendrix - The Burning Of The Midnight Lamp
e-chords

Other versions:

bass Dolores O'Riordan - October
auto scroll beats size up size down change color hide chords drawings
tab show chords e-chords YouTube Clip e-chords hide all tabs e-chords go to top tab

share