Dire Straits

home > Dire Straits

Your latest trick Bass Tab

Dire Straits

Difficulty: nolevelnolevel

by VsWorld

tuner correct add songbook print version text version save to e-mail
chordsukulelecavacokeyboardtabbassdrumsharmonicsflute Guitar Pro
chords

Your latest trick

Year: 1985 - Album: Brothers In Arms

  		
Intro 
(00:29) 
G|------------------|----------------|--------------|---------------| 
D|--------------.--.|----------------|--------------|---------------| 
A|-12----------11-12|-14------12-----|-11-----------|-12-----------\| 
E|------------------|----------------|--------------|---------------| 

G|---------------|---------------|--------------|---------------| 
D|-4-----/-8-----|-9-------------|--------------|---------------| 
A|---------------|--------12-----|-11-----------|-9------11-----| 
E|---------------|---------------|--------------|---------------| 

G|-----------------|-----------------------------| 
D|-----------------|-----------------------------| 
A|-12--------\-----|-5---------------------------| 
E|-----------------|-----------------------------| 

(01:09 ~ 01:24 - No Bass) 

(01:25) 
G|----------|--------------------------------|--------------------|----------------------| 
D|----------|--------------------------------|--------------------|-------6--------------| 
A|-4--------|-2------------------------------|------1----2----0---|----------------------| 
E|-----5----|-------5---4-----4--4-5-----0--0|-2------------------|-4-------4-3-2----4---| 

Verse 
G|---------------------|----------------------|-----------------------|-------7/9--7---------------| 
D|---------------------|----------------------|----------7-4-----4----|--------------7(~)----------| 
A|-------7-------------|-2---4----2----4------|-------4------------7-6|-5--------------------------| 
E|-0--------0-0---2----|-------------------4-3|-2---------------------|-----------------------5-5-7| 

G|---------------------|----------------------|-------------------|---------------------| 
D|---------------------|----------1----3------|----------4--------|-------7-------------| 
A|-------7-------------|-2---4-------------4--|-------4-----------|-5------------5---7-\| 
E|-0--------0-0---2----|---------------------4|-2----------------5|---------------------| 

G|-------------------|----------------------|----------------------|---------------------| 
D|-------------------|----------------------|----------------------|---------------------| 
A|-------------------|----------------------|----------------------|-----4----6-------6-\| 
E|-5--------7----5---|-4-----4--4-5----5---5|-7-----7-7-\-4---5----|-7--------------4----| 

Interlude 
G|----------|--------------------------------|--------------------|---------------------------| 
D|----------|---------------6----------------|--------------------|-----6---------------------| 
A|-4--------|-2------------------------------|------1----2----0---|------------------------2--| 
E|-----5----|-------5---4--------4-5------0-4|-2------------------|-4-------4-3-2---3-h4-4---4| 

Verse 
G|---------------------|----------------------|------------------------|-----7/9-----7---------| 
D|---------------------|----------------------|----------4-------------|-----------------------| 
A|-------7-------------|-2---4----2----4------|-------4-------------7-6|-5---------------------| 
E|-0--------0-0---2----|-------------------4-3|-2----------2----4-/----|-------------------7--\| 

G|--------------------|-----------------------|-------------------------|---7/9--------------------| 
D|--------------------|----------1----3-------|-------7/9-7-------4-----|----------7---------------| 
A|--------------------|-2---4------------4----|----4--------------------|-5---------------7\9-7---\| 
E|-0-------0-0---2----|--------------------4-\|-2-------------------2--/|--------------------------| 

G|---------------------|----------------------|--------------------|-----------------------| 
D|---------------------|----------------------|--------------------|-----------------------| 
A|---------------------|----------------------|--------------------|-----4----6---------2-3| 
E|-5---5---5--7----5---|-4-----4-4--5----5---5|-7---7-----4---5----|-7--------------4-4----| 

Interlude 
G|----------|---------------------------------|--------------------|---------------------------| 
D|----------|-----------------6---------------|--------------------|-----6---------------------| 
A|-4--------|-2-------------------------------|------1----2----0---|------------------------2--| 
E|-----5----|-------5---4--------4-5-----0-5-4|-2------------------|-4-------4-3-2---3-h4-4---4| 

Verse 
G|---------------------|----------------------|------------------------|---7/9--------------------------| 
D|---------------------|----------------------|------------------------|--------7h9p7------\------------| 
A|-------7-------------|-2---4----2----4------|-----------------------4|-5-------------------5h7p5-5-7-\| 
E|-0--------0-0---2----|-------------------4-3|-2-----2-0-2-2---4---5--|--------------------------------| 

G|---------------------|-----------------------|-----------------------------6|-7/9--------------------------| 
D|---------------------|----------1----3-------|-------(9-7----.---------6-7--|-------(7)--------------------| 
A|-------7-------------|-2---4------------4----|------------7)-9-9-----9------|-----------5---------(5)--(5)-| 
E|-0--------0-0---2----|--------------------4-\|-2-------------------9--------|-------------------5----------| 

G|---------------------|----------------------|----------------------|-----------------------| 
D|---------------------|----------------------|----------------------|---------------6---11-\| 
A|---------------------|----------------------|----------------------|-----4----6------------| 
E|-5---5---5--7----5---|-4-----4-4--5----5---5|-7-----7-7-0-0---5----|-7---------------------| 

Outro 
G|-6--\------|---------------------------------|--------------------|------------------------| 
D|-----------|---------------6-----------------|--------------------|-----6------------------| 
A|------0----|-2-------------------------------|------1----2----0---|------------------------| 
E|-----------|-----5-----4--------4-5---5---4-3|-2------------------|-4-------4-\-2---2-4---/| 

G|--------9/11-9---|-------------------------------------|--------------------|---------------------| 
D|-----------------|-9---7-------------------------------|--------------------|-----6----5----------| 
A|----11-----------|-----------11----\-------------------|------1----2----0---|---------------------| 
E|-9---------------|-------------------4-4-h5-5---5---4-3|-2------------------|-4----------2----4---| 

G|----------|---------------------------------|--------------------|-----------------------| 
D|----------|---------------------------------|--------------------|-----6-----------------| 
A|-4--------|-2-------------------------------|------1----2----0---|----------------------2| 
E|-----5----|-----5-----4-----4--5-5---5---0-4|-2------------------|-4--------3-2---2-4----| 

G|-------9/11-9--------------------|------------------------|---------------------|------------------------| 
D|----6-----------(11-10-9)---7----|-----6------------------|-4---\---------------|-----6------------------| 
A|-4-------------------------------|------------------------|------------2----0---|------------------------| 
E|---------------------------------|-4--------4-5---5--0-4-\|-------2-------------|-4-------4-3-2---3-4---4| 

G|----------|----------------------------------|--------------------|-------5/6-5----5------5--| 
D|----------|---------------6------------------|--------------------|-------------------------6| 
A|-4--------|-2--------------------------------|------1----2----0---|----6---------------------| 
E|-----5----|-----5-----4-------4-5-5-----5-4-3|-2------------------|-4------------------------| 

G|----------|-----------------------------------|--------------------|---------------------------| 
D|----------|-9---------------------------------|--------------------|---------6--5-4---5-6------| 
A|-4---7----|-9---------11--\-------------------|------1----2----0---|-------6--------------6----| 
E|----------|-7---5-----------4----5-5---5---0-4|-2------------------|-4---4------------------4-4| 

                            (fade out) 
G|----------|-------------------------| 
D|----------|-----------6-------------| 
A|-4--------|-2-------------6-\0------| 
E|-----5----|-----5---------------4--5| 


**************************************** 

| / Slide up 
| \ Slide down 
| h Hammer-on 
| p Pull-off 
| ~ Vibrato 
| . Staccato 
| (n) Ghost note 
| (n-n) Fast 

**************************************** 
	  

Search Paypal
auto scroll beats size up size down change color hide chords drawings
tab show chords e-chords YouTube Clip e-chords hide all tabs e-chords go to top tab