Dire Straits

home > Dire Straits

Once Upon A Time In The West Bass Tab

Dire Straits

Difficulty: ExpertExpert

by gabriel101

tuner correct add songbook print version text version save to e-mail
chordsukulelecavacokeyboardtabbassdrumsharmonicsflute Guitar Pro
chords

Once Upon A Time In The West

Year: 1984 - Album: Alchemy

  		The intro is played by guitar only, then the verse goes like this: 
 
  4/4            3/4               4/4            3/4 
G|--------------|-----------------|--------------|-----------------|- 
D|--------------|-----------------|--------------|-----------------|- 
A|--------------|------7----55----|--------------|------7----55----|- 
E|5-----55-----5|5--8------5----8-|5-----55-----5|5--8------5----8-|- 
 
  3/4        4/4               3/4              4/4 
G|----------|-----------------|----------------|------------------|- 
D|----------|-----------------|----------------|------------------|- 
A|--------5-|---5-----------23|5---5x75--------|775-3-----3--33---|- 
E|5----55--5|3-----3--33---3--|----------5----5|---5---3--------75|- 
 
                                        ____1.+2._______ 
  4/4              4/4                  4/4             | 
G|----------------|----------2---------|----------------|- 
D|----------------|------7-------------|----------------|- 
A|----------------|5--8----------2--5-5|----------------|- 
E|5--8--5--55--558|-----------3--------|5--8--5--55--030|- 
 
  _____3._________ 
  4/4             | 
G|----------------|- 
D|----------------|- 
A|----------------|- 
E|5--8--5--55-5785|- 
 
 
repeat the verse twice (very small variations) then into the bridge: 
  4/4              4/4              6/4 
G|----------------|----------------|-----------------|- 
D|----------------|33--33--33--33--|-----------------|- 
A|55--55--55--55-3|---3---3---3----|-----------------|- 
E|---5---5---5----|---------------3|55-133-01-----030|- 
 
 
once again play the verse plus the bridge, then the verse again 
and at end fade the whole thing out for nearly two minutes playing 
the last two bars of the verse. 
	  

Search Paypal
auto scroll beats size up size down change color hide chords drawings
tab show chords e-chords YouTube Clip e-chords hide all tabs e-chords go to top tab