Dire Straits

home > Dire Straits

Money for nothing Bass Tab

Dire Straits

Difficulty: ExpertExpert

by cebolinha

tuner correct add songbook print version text version save to e-mail
chordsukulelecavacokeyboardtabbassdrummharmonicsflute Guitar Pro
chords

Money for nothing

Year: 1985 - Album: Brothers In Arms

	  VERSO:						     
|--------------|---------------|-------------|--------------| 
|*-------------|---------------|-------------|-------------*| 
|*-------------|-------3-1-----|-------------|-1---0-3-----*| 
|--3---3-3---3-|-3---0-----1-2-|-3---3-3---3-|---------0-1--| 
 
|-------------| 
|-----5-3-----| 
|---------5-3-|   
|-1-----------| 
  
CHORUS: 
|---------|---------------|---------|---------|-------------| 
|-1---1---|---------------|-1---1---|-3-------|-------------| 
|---------|-1---1-0-1-3-0-|---------|---------|-------------| 
|---------|---------------|---------|-----1---|-3---3-3---3-| 
 
|---------------|-----------|-----------|---------|---------| 
|---------------|-----------|---------1-|-2---2---|-2---2---| 
|-------------2-|-3---3-3-4-|-5---5-5---|---------|---------| 
|-3---3-0-3-5---|-----------|-----------|---------|---------| 

	  

there isn't a video lesson for this song

request
Search
auto scroll beats size up size down change color hide chords drawings
tab show chords e-chords YouTube Clip e-chords hide all tabs e-chords go to top tab