Dire Straits

home > Dire Straits

Down To The Waterline Bass Tab

Dire Straits

Difficulty: ExpertExpert

by gabriel101

tuner correct add songbook print version text version save to e-mail
chordsukulelecavacokeyboardtabbassdrumsharmonicsflute Guitar Pro
chords

Down To The Waterline

  		common time(4/4) 
standard tuning(EADG) 
 
INTRO: 
 
|--------------|-------------|-----------|------------| 
|*-------------|-------------|-----------|-----------*| 
|*-------------|-----------0-|-2---2---0-|-2---2---0-*| 
|--3---3---0-2-|-3---3---3---|-----------|------------| 
   1 2 & 3 4 &   1 2 & 3 4 &   1 2 & 3 4   1 2 & 3 4 
 
VERSE: 
                                                   (x2) 
|------------|-------------|-------------|--------------| 
|*-----------|-------------|-------------|-------------*| 
|*-.---9-----|-.-.-----7-5-|-----------9-|-----------9-*| 
|--7---------|-5-5---7-----|-7---7---7---|-7---7---7----|  
   1 2 & 3 4   1 & 2 & 3 4   1 2 & 3 4 &   1 2 & 3 4 & 
 
|-------4-2-|-----------|---------|---------|-----------| 
|-----4-----|-4-----4-2-|---------|---------|-----------| 
|-2---------|-----4-----|-0-4-5-6-|-7-----0-|-2---2---0-| 
|-----------|-----------|---------|---------|-----------| 
  1 2 & 3 4   1 2 & 3 4   1 2 3 4   1 2 3 4   1 2 & 3 4 
 
|-----------| 
|-----4-/-2-| 
|-2---------| 
|-----------| 
  1 2 & 3 4 
 
LEAD 1: 
 
|-------------|-------------|-----------|-----------|-------------| 
|-------------|-------------|-----------|-----------|-------------| 
|-------------|-----------0-|-2---2---0-|-2---2---0-|-----------2-| 
|-3---3---0-2-|-3---3---3---|-----------|-----------|-3---3---3---| 
  1 2 & 3 4 &   1 2 & 3 4 &   1 2 & 3 4   1 2 & 3 4   1 2 & 3 4 & 
 
|-----------|-----------|-----------| 
|-----------|-----------|-----------| 
|-0---0-----|-2---2---0-|-2---2---0-| 
|-----------|-----------|-----------| 
  1 2 & 3 4   1 2 & 3 4   1 2 & 3 4 
 
LEAD 2: 
 
|-------------|-------------|-----------|-----------|-------------| 
|-------------|-------------|-----------|-----------|-------------| 
|-------------|-----------0-|-2---2---0-|-2---2---0-|-----------2-| 
|-3---3---0-2-|-3---3---3---|-----------|-----------|-3---3---3---| 
  1 2 & 3 4 &   1 2 & 3 4 &   1 2 & 3 4   1 2 & 3 4   1 2 & 3 4 & 
 
|-----------| 
|-----------| 
|-0---0-----| 
|-----------| 
  1 2 & 3 4  
 
SOLO: 
 
|-----------|---------------|-------------|-----5---3-2---| 
|-----------|---------------|-------------|-------------5-| 
|-7---/-5-0-|-4---4-----2-0-|-3---3---2---|-3-------------| 
|-----------|---------2-----|-----------2-|---------------| 
  1 2 3 4 &   1 2 & 3 & 4 &   1 2 & 3 4 &   1 2 & 3 & 4 & 
 
|-------------|-----------|-------------|-----5---3-2---| 
|-------------|-5---5---4-|-------------|-------------5-| 
|---------0-5-|-----------|-3---3-----2-|-3-------------| 
|-3---3-------|-----------|---------3---|---------------| 
  1 2 & 3 4 &   1 2 & 3 4   1 2 & 3 4 &   1 2 & 3 & 4 & 
 
|-------------|-----------|-----------|-----------|-----------| 
|-------------|---------7-|---------7-|-----------|-----------| 
|-5---5---0-3-|-5---5-----|-0---0-----|-0---0-----|-----------| 
|-------------|-----------|-----------|-----------|-2---2---0-| 
  1 2 & 3 4 &   1 2 & 3 4   1 2 & 3 4   1 2 & 3 4   1 2 & 3 4 
 
|---------------|-----------|-----------| 
|---------------|-----------|-----------| 
|---------------|-----------|-0---0-----| 
|-2---2---2-3-5-|-3---3-----|-----------| 
  1 2 & 3 & 4 &   1 2 & 3 4   1 2 & 3 4 
 
 

	  

Search Paypal
auto scroll beats size up size down change color hide chords drawings
tab show chords e-chords YouTube Clip e-chords hide all tabs e-chords go to top tab