Diana Krall

home > Diana Krall

's Wonderful Bass Tab

Diana Krall

Difficulty: nolevelnolevel

by gustsilva

tuner correct add songbook print version text version save to e-mail
chordsukulelecavacokeyboardtabbassdrumsharmonicsflute Guitar Pro
chords

's Wonderful

  		
Intro (0:11 - 0:28)                                                                         
    '                 '               '                 '                
G|---------------------------------------------------------------------| 
D|---------------------------------------------------------------------| 
A|--------------------------1-------1---------------------------1------| 
D|--1------------------------------------------------------------------| 
                                                                       
    '   '   '   '      '   '   '   '      '   '   '   '     '   '   '   '     
G|------------------|------------------|-----------------|------------------| 
D|------------------|------------------|-----------------|----------3-------| 
A|--------1-1-------|--------1-1-----1-|--------------3--|--------3-------0-| 
D|--1-------------1-|--2---------------|--5-----5-2------|--3---------------| 
                                                                            
    '   '   '   '      '   '   '   '      '   '   '   '      '   '   '   '     
G|------------------|------------------|------------------|------------------| 
D|--------3-5-----0-|--1-----1-1-----1-|----------------0-|------------------| 
A|--1---------1-3---|------------------|----------1---1---|--------1-1-----1-| 
D|------------------|------------------|--1-----1---------|--1---------------| 

(0:28 - 0:33)                                                         
    '   '   '   '      '   '   '   '      '   '   '   '     
G|------------------|------------------|----------5-------| 
D|------------------|------------------|--------5-----5---| 
A|--------1-1---0---|------------------|--3-------------3-| 
D|--1-------------6-|--5-----5-4-----4-|------------------| 

(0:33 - 0:40)                                                                               
    '   '   '   '      '   '   '   '      '   '   '   '      '   '   '   '     
G|------------------|----------3-------|------------------|------------------| 
D|------------------|--------3---------|--------------5-1-|------------------| 
A|--------3-------0-|--1---------------|--------1-1-------|--5---5-----------| 
D|--3-------1-------|----------------1-|--1---------------|----------0-----0-| 

(0:40 - 1:04)                                                                          
    '   '   '   '      '   '   '   '      '   '   '   '      '   '   '   '    
G|------------------|------------------|------------------|-----------------| 
D|------------------|------------------|--------0-------0-|--------0--------| 
A|----------------0-|------------------|------------------|--------------3--| 
D|--5-----0-5-------|--0-----0-0-----0-|--5-------5-------|--5-------5------| 
                                                                         
    '   '   '   '      '   '   '   '     '   '   '   '      '   '   '   '     
G|------------------|-----------------|--------0-1-0-----|----------3-------| 
D|------------------|-----------------|--3-----------3---|--------3-------0-| 
A|------------------|--------------3--|----------------0-|--1---------------| 
D|--4-----4-4-----4-|--4-----4-4------|------------------|------------------| 
                                                                        
    '   '   '   '      '   '   '   '      '   '   '   '     '   '   '   '     
G|------------------|------------------|-----------------|----------------3-| 
D|------------------|------------------|-----------------|----------3-------| 
A|------------------|----------3-----3-|--------------3--|--------3---------| 
D|--1-----1-1-----3-|--4-----4---------|--4-----4-4------|--3---------------| 
                
    '   '   '   '     
G|----------3-------| 
D|----------------0-| 
A|--1-----1---------| 
D|------------------| 

(1:04 - 1:25)                                                                              
    '   '   '   '      '   '   '   '      '   '   '   '      '   '   '   '     
G|------------------|------------3-----|------------------|------------------| 
D|------------------|------------------|------------------|------------------| 
A|------------------|--------0-1---1-1-|--------1-1-------|--------1-1-1-----| 
D|--1-----1-1-----1-|--1---------------|--1-------------1-|--1-----------5-1-| 
                                                                   
    '   '   '   '      '   '   '   '      '   '   '   '      '   '   '   '     
G|------------------|------------------|------------------|----------3-------| 
D|----------2-------|----------2-------|------------------|--------3-------0-| 
A|--------1-------1-|--------1-------1-|--------3-------0-|--1---------1-3---| 
D|--2---------------|--2---------------|--3-------3-------|------------------| 
                                                         
    '   '   '   '      '   '   '   '      '   '   '   '     
G|------------------|--------------3---|------------------| 
D|--1---------------|----------------0-|--1---------------| 
A|------------------|--------1-1-------|--------1-1-------| 
D|--------1-1-----1-|--1---------------|----------------1-| 

(1:25 - 1:34)                                                                              
    '   '   '   '     '   '   '   '      '   '   '   '      '   '   '   '     
G|-----------------|------------------|----------5-------|------------------| 
D|-----------------|------------------|--------5-------2-|----------3-------| 
A|----------1------|----------4-----4-|--3---------------|--------3-------3-| 
D|--1-----1-----6--|--5-----5---------|------------------|--3---------------| 
                    
    '   '   '   '     
G|--3-----5-3-------| 
D|----------------0-| 
A|------------1-3---| 
D|------------------| 

(1:34 - 1:49)                                                                               
    '   '   '   '      '   '   '   '      '   '   '   '      '   '   '   '     
G|--------3---------|------------------|------------------|------------------| 
D|------------------|------------------|------------------|------------------| 
A|----------1-------|------------------|----------------0-|------------------| 
D|--1-------------1-|--0-----0-0-----0-|--5-----0-5-------|--0-----0-0-----0-| 
                                                                                                                                                        
    '   '   '   '      '   '   '   '      '   '   '   '      '   '   '   '     
G|------------------|------------------|------------------|------------------| 
D|------------------|------------------|------------------|------------------| 
A|--------5---------|------------------|------------------|------------3-5-3-| 
D|--5-------5-----0-|--5-----5-5-0-5-3-|--4-----4-4-----4-|--3-----3-3-------| 

(1:49 - 1:54)                                                            
    '   '   '   '      '   '   '   '      '   '   '   '     
G|------------------|----------3-------|------------------| 
D|------------------|--------3-------0-|------------------| 
A|------------------|--1---------------|------------------| 
D|--3-----5-6-5-3-3-|------------------|--1-----1-1-----4-| 

(1:54 - 2:03)                                                                                 
    '   '   '   '      '   '   '   '      '   '   '   '        '   '   '   '     
G|------------------|------------------|--------------------|--------3-----3---| 
D|------------------|------------------|----------3---------|----------------3-| 
A|----------------3-|----------------3-|--------3---------0-|--1-------1-------| 
D|--4-----4-4-------|--4-----4-4-------|--3-----------------|------------------| 
                                          
    '   '   '   '     
G|------------------| 
D|------------------| 
A|----------3---1---| 
D|--1-----1---1---1-| 

(2:03 - 2:38)                                                                             
    '                 '                 '                 '                  
G|-------------------------------------------------------------------------| 
D|-------------------------------------------------------------------------| 
A|-------------------------------------------------------------------------| 
D|--0-------------------------0-------0---------------------------0--------| 
                                                                             
    '   '   '   '      '   '   '   '      '   '   '   '      '   '   '   '    
G|------------------|------------------|------------------|-----------------| 
D|------------------|------------------|------------------|-----------------| 
A|----------------0-|------------------|--------5-------5-|--------5-----3--| 
D|--5-----5-5-------|--0-----0-0-----0-|--5-------5-------|--5-------5------| 
                                                                             
    '   '   '   '      '   '   '   '     '   '   '   '      '   '   '   '    
G|------------------|-----------------|------------------|-----------------| 
D|------------------|-----------------|------------------|--3-----3--------| 
A|------------------|----------1---3--|------------------|----------1------| 
D|--4-----4-4-----4-|--4-----4--------|--3-----5-3-----5-|--------------0--| 
                                                                               
    '   '   '   '      '   '   '   '      '   '   '   '      '   '   '   '     
G|------------------|------------------|------------------|------------------| 
D|------------------|------------------|------------------|------------------| 
A|--------1---------|----------1-------|----------3-----3-|--------3-------3-| 
D|--1-------1-----0-|--1-----1---0-2-3-|--4-----4---------|--4-------4-------| 
                                                                           
    '   '   '   '      '   '   '   '      '   '   '   '      '   '   '   '     
G|------------------|------------------|------------------|--------3-3-------| 
D|------------------|----------------0-|--1-----1-1-----1-|--2-------------0-| 
A|--------3---0-1-2-|--1-----1-1-1-3---|------------------|--------------1---| 
D|--3-------3-------|------------------|------------------|------------------| 
                                         
    '   '   '   '      '   '   '   '     
G|------------------|--------3---------| 
D|------------------|--------------1---| 
A|--------1-1-------|----------1-1---1-| 
D|--1-------------1-|--1---------------| 

(2:38 - 2:44)                                                          
    '   '   '   '      '   '   '   '      '   '   '   '    
G|------------------|------------------|--------6-----6--| 
D|------------------|--------2-2-----5-|-----------------| 
A|----------------1-|--1-----------1---|----------3------| 
D|--2-----5-5-------|------------------|--1--------------| 

(2:44 - 2:51)                                                                             
    '   '   '   '      '   '   '   '      '   '   '   '      '   '   '   '     
G|----------3-------|------------------|------------------|------------------| 
D|--------0-------0-|------------------|----------------0-|----------1-------| 
A|--1---------------|------------------|--------0-1-0-1---|--------1-------1-| 
D|------------------|--1-----1-1-----1-|--1---------------|--1---------------| 

(2:51 - 2:57)                                                            
    '   '   '   '      '   '   '   '      '   '   '   '     
G|------------------|------------------|------------------| 
D|----------2-------|------------------|------------------| 
A|--------1---1-0---|------------------|--3-----3-3-------| 
D|--1-------------6-|--5-----5-5-----5-|----------------2-| 

(2:57 - 3:04)                                                                               
    '   '   '   '      '   '   '   '      '   '   '   '      '   '   '   '     
G|------------------|------------------|------------------|------------------| 
D|------------------|----------------0-|--1-----------3-1-|--0-----0-0-----0-| 
A|----------0-----0-|--1-----1-1-------|--------1-1-------|------------------| 
D|--3-----5---5-3---|------------------|------------------|------------------| 

(3:04 - 3:15)                                                                              
    '   '   '   '      '   '   '   '      '   '   '   '      '   '   '   '     
G|------------------|------------------|------------------|------------------| 
D|------------------|--0-----0-0-----0-|--------0-------0-|--------0---------| 
A|----------------0-|------------------|------------------|------------1-3---| 
D|--5-----5-5-------|------------------|--5-------5-------|--5-------5-----5-| 
                                       
    '   '   '   '      '   '   '   '     
G|------------------|------------------| 
D|------------------|------------------| 
A|------------------|--------------5-3-| 
D|--4-----4-4-----4-|--3-----3-3-6-----| 

(3:15 - 3:26)                                                                               
    '   '   '   '      '   '   '   '      '   '   '   '      '   '   '   '     
G|----------1-0-----|--------3---------|------------------|--------3-3-------| 
D|--------------3---|--------------0-0-|------------------|------------------| 
A|----------------0-|--1-------1-------|--------1-1-------|------------1-----| 
D|--3-----3---------|------------------|--1-------------1-|--1-----------1-3-| 
                                     
    '   '   '   '      '   '   '   '     
G|------------------|------------------| 
D|------------------|------------------| 
A|----------3-----3-|----------3-------| 
D|--4-----4---------|--4-----4-----4-1-| 

(3:26 - 3:30)                                      
    '   '   '   '      '   '   '   '     
G|------------------|--------3-3-------| 
D|------------------|------------------| 
A|----------------0-|--1-----------1---| 
D|--3-----6-6-5-3---|----------------0-| 

Outro (3:30 - 4:09)                                                                            
    '   '   '   '      '   '   '   '      '   '   '   '      '   '   '   '    
G|------------------|------------------|------------------|-----------------| 
D|------------------|------------------|------------------|--------------0--| 
A|------------------|------------------|----------------1-|--1-----1-1-3----| 
D|--1-----1-1-----1-|--1-----1-1-----1-|--1-----1-1-------|-----------------| 
                                                                             
    '   '   '   '      '   '   '   '      '   '   '   '      '   '   '   '     
G|------------------|------------------|--------3-3-------|--------3-3-------| 
D|--------1-1-------|--------1-1-------|------------------|------------------| 
A|------------------|----------------1-|--1-------------1-|--1-------------1-| 
D|--1-------------1-|--1---------------|------------------|------------------| 
                                                                            
    '   '   '   '      '   '   '   '      '   '   '   '      '   '   '   '     
G|------------------|------------------|--------3-3-------|--------3-3-------| 
D|--------1-1-------|--------1-1-------|------------------|------------------| 
A|------------------|----------------1-|--1-------------1-|--1-------------1-| 
D|--1-------------1-|--1---------------|------------------|------------------| 
                                                                             
    '   '   '   '      '   '   '   '      '   '   '   '      '   '   '   '     
G|------------------|------------------|--------3-3-------|--------3-3-------| 
D|--------1-1-------|--------1-1-------|------------------|------------------| 
A|------------------|----------------1-|--1-------------1-|--1-------------1-| 
D|--1-------------1-|--1---------------|------------------|------------------| 
                                                                            
    '   '   '   '      '   '   '   '      '   '   '   '      '   '   '   '     
G|------------------|------------------|--------3-3-------|--------3-3-------| 
D|--------1-1-------|--------1-1-------|------------------|------------------| 
A|------------------|----------------1-|--1-------------1-|--1-------------1-| 
D|--1-------------1-|--1---------------|------------------|------------------| 
             
    ' ' ' '  
G|---------| 
D|---------| 
A|--1------| 
D|---------| 
	  

Search Paypal
auto scroll beats size up size down change color hide chords drawings
tab show chords e-chords YouTube Clip e-chords hide all tabs e-chords go to top tab