Deftones

Be quiet and drive

Deftones

bass

save to print version add songbook text version e-mail correct tuner
chordsukulelecavacokeyboardtabbassdrumsharmonicaflute Guitar Pro
close

there isn't a video lesson for this song

chords

Be quiet and drive

	  		



Tabbed By Jason The Great ([email protected])

Pay attention to the tuning, drop d and down half a step

MAIN RIFF
Gb|------------------------------------------------|
Db|------------------------------------------------|
Ab|------------------------------------------------|
Db|-0--0-0-0--0-0--0-0-0-0-9-9-9h10-9-9-9-9-9h10-7-|

variation, played frequently at various times
Gb|-----------------------------------------------|
Db|-----------------------------------------------|
Ab|-----------------------------------------------|
Db|-0--0-0-0--0-0--0-0-0-0-9-9-9h10-9-9-9-9-7-9-7-|

CHORUS
Gb|----------------------------|
Db|----------------------------|
Ab|----------------------------|
Db|-7--7--7--7--12--12--12--12-|

Gb|-------------------------------------------|
Db|-------------------------------------------|
Ab|----2-2---2-2---2-2------------------|
Db|-0-0-----0-0-----0-0-----4-4h5-5-5-5h6-6-6-|

the notes in brackets are not played on the album.  they do however fit well
to what the guitar is playing.  So if you want to play them, they sound good,
and they serve as a nice space filler if you're just fooling around without
a band or the album backing you.

		  

See also:

bass Santana - Smooth bass The Beatles - Day Tripper (ver. 2) bass Bad Company - Feel Like Makin Love bass The Beatles - Eight days a week bass Dire Straits - Sultans of Swing bass The Beatles - A Hard Day's Night
e-chords

Other versions:

bass Deftones - Be quiet and drive bass Deftones - Be Quiet And Drive (ver. 2) bass Deftones - Be Quiet And Drive (ver. 3) bass Deftones - Be Quiet And Drive far Away
auto scroll beats size up size down change color hide chords drawings
tab show chords e-chords YouTube Clip e-chords hide all tabs e-chords go to top tab

share