Deep Purple

Strange kind of woman

Deep Purple

bass Advanced advanced

save to print version add songbook text version e-mail correct tuner
chordsukulelecavacokeyboardtabbassdrumsharmonicaflute Guitar Pro
close

there isn't a video lesson for this song

chords

Strange kind of woman

Year: 1980 - Album: The Very Best of Deep Purple

	  		



Riff 1
|------------------|------------------|-----------------|-----------------|
|------------------|------------------|-----------------|-----------------|
|-----------5------|-----------5------|-77--77--77--77--|-77--77--77--77--|
|-5-7---7-7----7---|-5-7---7-7----7---|-----------------|-----------------|

Riff 2
   Play it twice
|------------------|
|------------------|
|---5--------------|
|-5---7----7-5-7---|

|-----------------|-----------------|
|-----------------|-----------------|
|-----------------|-----------------|
|-57--57--57--57--|-57--57--57--57--|

		  

auto scroll beats size up size down change color hide chords drawings
tab show chords e-chords YouTube Clip e-chords hide all tabs e-chords go to top tab

share