Davie504

Pirates Of The Caribbean On

Davie504

bass Beginner beginner

by  BOMBAXXX

save to print version add songbook text version e-mail correct tuner
chordsukulelecavacokeyboardtabbassdrumsharmonicaflute Guitar Pro
close

there isn't a video lesson for this song

chords

Pirates Of The Caribbean On

	  		 
G|-7-9-10--12-14-15--17-18-19--14h17p16--12-14-15-14-12--10-9-| 
D|------------------------------------------------------------| 
A|------------------------------------------------------------| 
E|------------------------------------------------------------| 
 

 
G|------------------------------------------------------------| 
D|-12--12-12-12-12-12--12-12-12-12-12--12-12-12-12-12---------| 
A|------------------------------------------------------------| 
E|------------------------------------------------------------| 
 

 
G|-----------------------9-10-10--10-12-9--9------------------| 
D|-------10-10h12-12--12---------------------12-10-10-12------| 
A|-10/12------------------------------------------------------| 
E|------------------------------------------------------------| 
 

 
G|-----------------------9-10-10--10-12--9-9------------------| 
D|-------10-10h12-12--12---------------------12-10-12---------| 
A|-10/12------------------------------------------------------| 
E|------------------------------------------------------------| 
 

 
G|-----------------------10/12-12--12h14h15-15--14--12-14-----| 
D|-------10-10h12-12--12----------------------------------12--| 
A|-10/12------------------------------------------------------| 
E|------------------------------------------------------------| 
 

 
G|-------------12-14------------------------------------------| 
D|-12-14-15-15-------12--12--15-14-14-15-12-14----------------| 
A|------------------------------------------------------------| 
E|------------------------------------------------------------| 
 

 
G|-----------------------9-10-10--10-12-9--9------------------| 
D|-------10-10h12-12--12---------------------12-10-10-12------| 
A|-10/12------------------------------------------------------| 
E|------------------------------------------------------------| 
 

 
G|-----------------------9-10-10--10-12--9-9------------------| 
D|-------10-10h12-12--12---------------------12-10-12---------| 
A|-10/12------------------------------------------------------| 
E|------------------------------------------------------------| 
 

 
G|-----------------------10/12-12--12h14h15-15--14--12-14-----| 
D|-------10-10h12-12--12----------------------------------12--| 
A|-10/12------------------------------------------------------| 
E|------------------------------------------------------------| 
 

 
G|-------------12-14--------------------------------------12--| 
D|-12-14-15-15-------12-12--15-14-14-12-10-12-12-14-15-15-----| 
A|------------------------------------------------------------| 
E|------------------------------------------------------------| 
 

 
G|-14--10--------15--10---------------------------------------| 
D|--------12------------12-----11--12-14----------------------| 
A|-----------12------------13--0------------------------------| 
E|------------------------------------------------------------| 
 

 
G|-14-14-14-15-14----12-12-12-12-14-----14-14-14-15-14----12-10-9-7-| 
D|------------------------------------------------------------------| 
A|-----------------------------------------------------10-8--7--5---| 
E|-----------------8-----------------10-----------------------------| 
 

 
G|-------9-10--12-14-12-10-9-10-12-14-12--10-12-14--12-10--9-10-9-----9-----| 
D|-10/12----------------------------------------------------------12--10-12-| 
A|--------------------------------------------------------------------------| 
E|--------------------------------------------------------------------------| 
 

 
G|----9-10-9-10-12-10-12-14-12--10\7--7-9-10-12-14-15----12--10-12-9-7\5-| 
D|-12-------------------------------------------------12-----------------| 
A|-----------------------------------------------------------------------| 
E|-----------------------------------------------------------------------| 
 

 
G|-7-9-10--12-14-15--17-18-19--14h17p16--12-14-15-14-12--10-9--7-7-7-7-5h7-7-7-7-| 
D|-------------------------------------------------------------------------------| 
A|-------------------------------------------------------------------------------| 
E|-------------------------------------------------------------------------------| 
 

 
G|-14--15--14-14-14-14-12--12-10-9-10-9-7-| 
D|----------------------------------------| 
A|-----13------------------10-8--7------5-| 
E|---------13-----------------------------| 


 
G|-14--15--14-14-14-14-12--12-10-9-10-9-7-| 
D|----------------------------------------| 
A|-----13------------------10-8--7------5-| 
E|---------13-----------------------------| 
		  

See also:

bass Deep Purple - Soldier Of Fortune bass Deep Purple - Into The Fire bass Deep Purple - Knocking At Your Back Door bass Deep Purple - Child in time bass Deep Purple - Smoke On The Water bass Deep Purple - Speed King
e-chords

Other versions:

bass Davie504 - Pirates Of The Caribbean On
auto scroll beats size up size down change color hide chords drawings
tab show chords e-chords YouTube Clip e-chords hide all tabs e-chords go to top tab

share